Heaven


Transposer


             Chorus strum chords:
xxx333 - xxx 10-10-10 - xxx211 - xxx766

Verse 2 strum chords:
xx 12-12-11 x - xx 12-10-10 x - xx 10-10-10 x - xx876x

Pre-Chorus 2:

e|-----------------|-----------------|-----------------|-----------------|
B|-----------------|-----------------|-----------------|-----------------|
G|-------0---------|-------0---------|---2---0---------|--------0--------|
D|---7-------------|---7-------------|-----3-----------|-----12----------|
A|-----8-----------|-----8-----------|-----------------|---8-------------|
D|-5---------------|-0---------------|-3---------------|-8---------------|
   1 + 2 + 3 + 4 +   1 + 2 + 3 + 4 +   1 + 2 + 3 + 4 +   1 + 2 + 3 + 4 +
   Gm7               Dmadd4            Fadd9             Bb6


ORDER: V1 PC1 C1 V2 PC2 C2 INT PsC B C3 O


[VERSE 1]
Gm       Dm                        F                           Bb
  I think  we were cursed from the start, the second I let you into my heart
Gm            Dm                    F                     Bb
  Do you think  we were speaking in tongues, or simply not  enough?


[PRE-CHORUS 1]
Gm                Dm             F                        Bb
Do you ever wonder  who took the light from our life, the life from our eyes?
Gm                    Dm    F                   Bb
All we did was suffer,  why couldn’t we just say...


[CHORUS 1]
 Gm  Dm   F  Bb
(You took my heart)
 Gm  Dm   F  Bb
(You took my heart)
                       Gm Dm F Bb
You took my heaven awaaaaaaaaaay...
    Gm Dm F Bb
awaaaaaaaaaay...


[VERSE 2]
Gm        Dm              F              Bb
  Our love  is pushing out and pulling in
      Gm      Dm           F                               Bb
  Just  like a  rising and falling chest that’s barely brea - thing.


[PRE-CHORUS 2]
Gm                 Dm          F                       Bb6
Did you ever wonder  about the dread on my tongue, the blood in my lungs?
    Gm                   Dm      F                Bb6
And all I did was suffer,  I was too afraid to say...


[CHORUS 2]
 Gm  Dm   F              Bb
            You took my heaven away
(You took my            heart)
 Gm  Dm   F            Bb
           You took my...
(You took my           heart)
                            Gm  Dm   F  Bb
You took my heaven away... (you took my heart)
         Gm  Dm   F  Bb
away... (you took my heart)


[INTERLUDE]
Gm Dm   F  Bb
  (took my heart)
Gm Dm   F             Bb
          You took my heaven away
  (took my            heart)


[POST-CHORUS 1]
Gm            Dm            F            Bb
  You took my,  you took my, you took my heaven away
Gm            Dm            F            Bb
  You took my,  you took my, you took my heaven away
(fewer instruments)
Gm            Dm            F            Bb
  You took my,  you took my, you took my heaven away
Gm            Dm            F            Bb
  You took my,  you took my, you took my heaven away


[BRIDGE]
Gm7 F Dm7 Gm

Bb     F                        Dm
I think we were cursed from the start
           Gm
You took my...


[FINAL CHORUS]
 Gm  Dm   F  Bb
(You took my heart)
 Gm  Dm   F  Bb
(You took my heart)
                         Gm             Dm            F            Bb
You took my heaven away... (you took my,  you took my, you took my heaven away)
      Gm             Dm            F            Bb
away... (you took my,  you took my, you took my heaven away)


[OUTRO]
 Gm  Dm   F  Bb
(You took my heart)
 Gm  Dm   F  Bb
(You took my heart)


(harp)
e|-----------3-5---|-----------1-3---|-----------1-3---|-----------1-3---|
B|-------3-6-------|-------1-3-------|-------1-3-------|-------1-3-------|
G|---3-5-----------|---2-3-----------|---2-3-----------|-----3-----------|
D|-5---------------|-0---------------|-3---------------|---3-------------| x2
A|-----------------|-----------------|-----------------|-1---------------|
D|-----------------|-----------------|-----------------|-----------------|
   1 + 2 + 3 + 4 +   1 + 2 + 3 + 4 +   1 + 2 + 3 + 4 +   1 + 2 + 3 + 4 +
   Gm7               Dm7               F                 Bb6
            

* All the chords provided on here are the property of the respective artist, authors and labels, they are intended strictly for educational purposes,read,view and private study. All the contents are extracted from the internet and we are not getting any responsibility for the content.