Himno S.d. Ponferradina


Transposer


             ADELANTE Y ARRIBA - HIMNO DE LA S.D. PONFERRADINA
--------------------------------------------------

El himno en su versión rock. Dudas y/o sugerencias a
[email protected]

 F5     A#5      C5      A#      D#
--x--    --x--    --x--    --6--    --6--
--x--    --x--    --x--    --6--    --8--
--x--    --1--    --3--    --7--    --8--
--3--    --3--    --5--    --8--    --8--
--3--    --3--    --5--    --8--    --6--
--1--    --x--    --x--    --6--    --x--

*Solo de gaita 1 para guitarra* (con la primera cuerda)

E|--6-8-10-13--|--15-13-11-10--8-10-6--|--6-8-10-13--|

E|--15-13-11-10-11-13--|--8-11-13-18--|--17-17-15-15-13-13--10--6--|

E|--6-8-11--13--|--17--|--18--|


*Solo de guitarra 1* (repetir siempre 2 veces)

E|------------|------------|--------------|
B|------------|------------|--------9-8~--|
G|--------6-6-|--------8-8-|--------------|
D|--8-8-8-----|--8-8-8-----|--8-8-8-------|
A|------------|------------|--------------|
E|------------|------------|--------------|


C5
Tu pasado Deportiva triunfante
A#5                      F5
De combates y trofeos sin fin
F5
Ya te invita a seguir siempre adelante
           F5             C5        A#5
Siempre adelante, gloria atlética del Sil


A#
Ponferrada en ti tiene de sus glorias
A#                     D#
El más alto y magnífico blasón
A#
Que del Bierzo ilumina las memorias
           F5        C5           A#5
La Ponferradina nos enciende el corazón


C5                 A#5
Triunfal Deportiva, adelante y arriba
F5
Deportiva a vencer en toda noble competición
           C5                A#5
Hurra Deportiva, tus fuerzas avivan
               F5          C5           A#5
Luchad blanquiazules por honrar nuestra región


Solo de guitarra 1
Solo de guitarra 2

**A partir de aquí son los mismos acordes**

Deportiva, amor y luz del Bierzo
Honra de la bandera blanquiazul
Al ascenso con alma y con esfuerzo
Siempre adelante, deportiva juventud

Solo de gaita 1

Triunfal Deportiva, adelante y arriba
Deportiva a vencer en toda noble competición
Hurra Deportiva, tus fuerzas avivan
Luchad blanquiazules por honrar nuestra región

Solo de guitarra 1
Solo de guitarra y gaita

Triunfal Deportiva, adelante y arriba
Deportiva a vencer en toda noble competición
Hurra Deportiva, tus fuerzas avivan
               F5          C5           A#5
Luchad blanquiazules por honrar nuestra región
               F5          C5           A#5
Luchad blanquiazules por honrar nuestra región
               F5          C5           A#5
Luchad blanquiazules por honrar nuestra región

(en esta parte se dan tres palmadas después de cada
"¡Deportiva!")
¡Deportiva! ¡Deportiva! ¡Deportiva!
            

* All the chords provided on here are the property of the respective artist, authors and labels, they are intended strictly for educational purposes,read,view and private study. All the contents are extracted from the internet and we are not getting any responsibility for the content.