Hong Kong


Transposer


             Intro/Main theme

Guitar 1
e|----------10-12-----------------|
B|---12---------------------------|
G|-9-----11-----------------------|
D|--------------------------------| X4
A|--------------------------------|
E|--------------------------------|

Guitar 2  
e|---------7----------------------|
B|-------8------------------------|
G|-----9---------9----8-----------|
D|---9-----------10---9-------7---| X4
A|-7------------------------7-----|
E|-------------8----7---5---------|

Em                    G       Dm         Am
Du får presanger, jeg elsker blikket hver gang
C            Em C B
Du lyver sånn
Em                    G       Dm         Am
Du får juveler, du elsker blikket som jeg gir deg
C            Em C B
Så ta min hånd

Em C B                    Em C B   
Men vi prøver å late som, prøver å late som
Em C B                    Em
Vi ikke vet det er laget i Hong Kong
Em
Hong Kong

e|----------10-12-----------------|
B|---12---------------------------|
G|-9-----11-----------------------|
D|--------------------------------| X4
A|--------------------------------|
E|--------------------------------|

Em                    G       Dm         Am
Fant kataloger, innbruddsikre paradis
C            Em C B
Som vi kan glo på
Em                    G       Dm         Am
Jeg byr deg sikkerhet, små evige bevis
C            Em C B
Som vi kan tro på


Em C B                    Em C B   
Men vi prøver å late som, prøver å late som
Em C B                    Em
Vi ikke vet det er laget i Hong Kong
Em
Hong Kong

e|----------10-12-----------------|
B|---12---------------------------|
G|-9-----11-----------------------|
D|--------------------------------| X4
A|--------------------------------|
E|--------------------------------|

Am            C                 Em
Neon-reklamen viser overdamene, tynne kropper sulte,
C
i duften av søtt
Am                           C
Kjøttsår er betalingsmiddel, kreditor og debitor
Em                           C
mens kniven finner ofre, er det flere som blir født
Em 
Der man dør av ærlig arbeid, der man sjeldent blir fornøyd
Em                                                C 
Der samlebåndet spyr ut skrot og juggel, plast og celluloid
Em
Med ren algan


Em C B                      
Men vi prøver å late som
Em C B                    Em
Vi ikke vet det er laget i Hong Kong
Em
Hong Kong


e|----------10-12-----------------|
B|---12---------------------------|
G|-9-----11-----------------------|
D|--------------------------------| X4
A|--------------------------------|
E|--------------------------------|


Em           
Du bærer ringen
G       Dm         Am
En femognittiøres trygghet
C
På din hånd
Em                          G       Dm         Am
Små ekle ubetydelige ting, blåses opp i tynne sprekker
C
Som en ballong

Em C B 

Em C B                    Em C B   
Mens vi prøver å late som, prøver å late som
Em C B                    Em
Vi ikke vet det er laget i Hong Kong
Em
Hong Kong
Em
Hong Kong
Em
Hong Kong
Em
Hong Kong
Em
Hong Kong
Em
Hong Kong
            

* All the chords provided on here are the property of the respective artist, authors and labels, they are intended strictly for educational purposes,read,view and private study. All the contents are extracted from the internet and we are not getting any responsibility for the content.