How To Love You Today


Transposer


             Use the following fingerpicking pattern throughout.
Chords for reference, but for the most part it's just the root on two octaves.


  A
e|--------------------------------------------------|
B|--------------------------------------------------|
G|--------------------------------------------------|
D|-----7-----7-----7-----7-----7-----7-----7-----7--|
A|--------------------------------------------------|
D|--7-----7-----7-----7-----7-----7-----7-----7-----|

  F#
e|--------------------------------------------------|
B|--------------------------------------------------|
G|--------------------------------------------------|
D|-----4-----4-----4-----4-----4-----4-----4-----4--|
A|--------------------------------------------------|
D|--4-----4-----4-----4-----4-----4-----4-----4-----|

  Ab
e|--------------------------------------------------|
B|--------------------------------------------------|
G|--------------------------------------------------|
D|-----6-----6-----6-----6-----6-----6-----6-----6--|
A|--------------------------------------------------|
D|--6-----6-----6-----6-----6-----6-----6-----6-----|


  E                         D
e|--------------------------------------------------|
B|--------------------------------------------------|
G|--------------------------------------------------|
D|-----2-----2-----2-----2-----0-----0-----0-----0--|
A|--------------------------------------------------|
D|--2-----2-----0-----0-----0-----0-----0-----0-----|

[Intro]

A    F#   Ab  E D

[Verse 1]

A                            
I'm learning how to love you today

F#                                                     
And I’m a little bit stupid when it comes to this game

Ab                                                  
Sometimes it feels like the rules keep on changing

E                                D     
But I'll try to keep up just the same

         
[Verse 2]

A                                  
I'm learning how to love you today

F#                                                            
And I don’t think it's likely that I will know what to say

Ab                                               
Maybe I'll just stare in your eyes for a change

E                              D      
And that's how I will love you today

         
[Verse 3]

A                                        
Well I am learning how to love you today

F#                                                  
And this time I will wrap you in blankets and pray

Ab                                               
And hold you in bed ‘til it's late in the day

E                              D      
And that's how I will love you today

         
[Verse 4]

A                                  
I'm learning how to love you today

F#                                                  
And this time it means that I will get in your way

Ab                                                            
You say you've gained six pounds and don’t feel successful

E                                D             
Baby I don’t give a damn how the dress fits

A                                               
But I wish I could give you the eyes in my head

F#                                                    
And let you trace your own figure with my fingertips

Ab                                                              
But we're stuck in these bodies and I know that won’t change

       
[Outro]

E                                    D    
So I will just have to love you this way

E                                   D    
Oh, I'll just have to love you this way
            

* All the chords provided on here are the property of the respective artist, authors and labels, they are intended strictly for educational purposes,read,view and private study. All the contents are extracted from the internet and we are not getting any responsibility for the content.