I Dont Even Know Your Name


Transposer


             Artist: Shawn Mendes
Song: I don't even know your name
Tabbed by: schnakeee
Tuning: Standard
Capo 3

[Intro]
             C         F        C        F         C        F         C        F
e|---------------------------------------------------------------------------------------|
B|---------------------------------------------------------------------------------------|
G|-----------0--x------2--2--x--0--x-----2--2---x--0--x-----2--2--x---0--x-----2--2------|
D|----0h2p0--2--x------3--3--x--2--x-----3--3---x--2--x-----3--3--x---2--x-----3--3------|
A|-----------3--x---3--------x--3--x--3---------x--3--x--3--------x---3--x--3------------|
E|---------------------1--1--------------1--1---------------1--1---------------1--1------|

[Verse 1]    
        C         F        C        F         C        F         C        F
e|----------------------------------------------------------------------------------|
B|----------------------------------------------------------------------------------|
G|------0--x------2--2--x--0--x-----2--2---x--0--x-----2--2--x---0--x-----2--2------|
D|------2--x------3--3--x--2--x-----3--3---x--2--x-----3--3--x---2--x-----3--3------|
A|------3--x---3--------x--3--x--3---------x--3--x--3--------x---3--x--3------------|
E|----------------1--1--------------1--1---------------1--1---------------1--1------|
Oh, you waited so long
Sometimes, it's hard to stand out

      C        E       Am     F      C         G         C
e|---------------------------------------------------------------------------|
B|---------------------------------------------------------------------------|
G|----0--x-----0--x-----2--x--3--x---0---x-----0--0--x---0-------------------|
D|----2--x-----0--x-----2--x--2--x---2---x-----0--0--x---2-------------------|
A|----3--x--3--2--x--2--0--x-----x---3---x--3--------x---3-------------------|
E|----------------------------1--x-------------3--3--x-----------------------|
And you, don't have to do anything else
But be yourself
Ooh, woah, oh

[Verse 2]
        C         F        C        F         C        F         C        F
e|----------------------------------------------------------------------------------|
B|----------------------------------------------------------------------------------|
G|------0--x------2--2--x--0--x-----2--2---x--0--x-----2--2--x---0--x-----2--2------|
D|------2--x------3--3--x--2--x-----3--3---x--2--x-----3--3--x---2--x-----3--3------|
A|------3--x---3--------x--3--x--3---------x--3--x--3--------x---3--x--3------------|
E|----------------1--1--------------1--1---------------1--1---------------1--1------|
You, you dressed up so nice
But all I could see was your eyes

      C        E       Am     F      C         G         C
e|---------------------------------------------------------------------------|
B|---------------------------------------------------------------------------|
G|----0--x-----0--x-----2--x--3--x---0---x-----0--0--x---0-------------------|
D|----2--x-----0--x-----2--x--2--x---2---x-----0--0--x---2-------------------|
A|----3--x--3--2--x--2--0--x-----x---3---x--3--------x---3-------------------|
E|----------------------------1--x-------------3--3--x-----------------------|
And the crowd, came, and pulled you away
And then you were gone
Ooh, woah, yeaah

[Chorus]
C            E              F   C
And I don't even know your name
C        E               F             C
All I remember is that smile on your face
C          E          F    C
And it'll kill me everyday
C              E             F F C
Cause I don't even know your name

[Verse 3] 
(strummed)
        C         F        C        F         C        F         C        F
e|----------------------------------------------------------------------------------|
B|----------------------------------------------------------------------------------|
G|------0--x------2--2--x--0--x-----2--2---x--0--x-----2--2--x---0--x-----2--2------|
D|------2--x------3--3--x--2--x-----3--3---x--2--x-----3--3--x---2--x-----3--3------|
A|------3--x---3--------x--3--x--3---------x--3--x--3--------x---3--x--3------------|
E|----------------1--1--------------1--1---------------1--1---------------1--1------|
Oh, everywhere that I go
I see your face and it kills me to know

      C        E       Am     F      C         G         C
e|---------------------------------------------------------------------------|
B|---------------------------------------------------------------------------|
G|----0--x-----0--x-----2--x--3--x---0---x-----0--0--x---0-------------------|
D|----2--x-----0--x-----2--x--2--x---2---x-----0--0--x---2-------------------|
A|----3--x--3--2--x--2--0--x-----x---3---x--3--------x---3-------------------|
E|----------------------------1--x-------------3--3--x-----------------------|
That you'll never know what you did to me
And now you're gone
Yeah, I can't stop thinking 'bout you

[Chorus]
C            E              F   C
And I don't even know your name
C        E               F             C
All I remember is that smile on your face
C          E          F    C
And it'll kill me everyday
C              E             F F C
Cause I don't even know your name
C              E             F F C
Yeah, I don't even know your name

[Bridge] 
(MuteD)
C
I'm running, I'm searching
      E
And I don't know where to start
     Am                           F
I'm dying, my love, you punched a hole right through my heart
    C
And I won't stop, stop looking
         E
'Till I hold you in my arms
          Am                         F
Cause I'm running, I'm running, I'm running

(Unmute)
C
I'm running, I'm searching
      E
And I don't know where to start
     Am                           F
I'm dying, my love, you punched a hole right through my heart
    C
And I won't stop, stop looking
         E
'Till I hold you in my arms
          Am                         F
Cause I'm running, I'm running, I'm running

[Chorus]
C            E              F   C
And I don't even know your name
C        E               F             C
All I remember is that smile on your face
C          E          F    C
And it'll kill me everyday
C              E             F F C
Cause I don't even know your name


************************************

| x  Dead note
| h  Hammer-on
| p  Pull-off

************************************
            

* All the chords provided on here are the property of the respective artist, authors and labels, they are intended strictly for educational purposes,read,view and private study. All the contents are extracted from the internet and we are not getting any responsibility for the content.