I Will Never Wait


Transposer


             Intro Riff:
e|-----------9-11-9---9--|
B|-11/9----9--------9----|
G|------10---------------|
D|-----------------------|
A|-----------------------|
E|-----------------------| x2

e|-11-9---9-11-13-11-9-11-13-11-9-11-13-11---9--|
B|------9----------------------------------9----|
G|----------------------------------------------|
D|----------------------------------------------|
A|----------------------------------------------|
E|----------------------------------------------|

e|-----------9-11-9---9--|
B|-11/9----9--------9----|
G|------10---------------|
D|-----------------------|
A|-----------------------|
E|-----------------------| x2

e|-11-9---9-11-13-11-9-11-13-11-9-11-13-11---9--|
B|------9----------------------------------9----|
G|----------------------------------------------|
D|----------------------------------------------|
A|----------------------------------------------|
E|----------------------------------------------|

e|-------------|
B|-11/9----9~--|
G|------10-----|
D|-------------|
A|-------------|
E|-------------|


VERSE:
Button up your shirt and tie your laces,
We're going out it's time to get wasted      C#
I've had it up to here with this week so I'm breaking all your rules.
F#
We built up a messy foundation,
                                        C#
You looked shocked when it's all shaking,
                                       F#
I built it up to feel a complete but I never got to choose

PRECHORUS:
G#
So don't you leave,
C#            Bbm
Cause I won't follow you,
     G#
Give up tonight

CHORUS:
C#
Don't ever try
D#m
Don't ever fight,
F#
Don't ever, cause I will never wait,
F#
No I will never wait

BRIDGE: F# D#m F# G# Bbm
F#
And I saw you shy,
G#
With your big blue eyes,
Bbm                         G#
And I thought this was our moment.
F#
So I saw it out,
G#
But I broke you down
F#                        G#
Cos i fought for what was golden
            

* All the chords provided on here are the property of the respective artist, authors and labels, they are intended strictly for educational purposes,read,view and private study. All the contents are extracted from the internet and we are not getting any responsibility for the content.