Im In A Hurry


Transposer


             I'm In A Hurry
Alabama

[Chorus 1]
I'm in a hurry to get things done
Oh I rush and rush until life's no fun
All I really gotta do is live and die
But I'm in a hurry and don't know why

[Verse 1]
A             E
   Don't know why
F#m                D 
I have to drive so fast
                      A
My car has nothing to prove
         E
It's not new
             F#m              D
But it'll do zero to sixty in five point two  ohh

[Chorus 2]
A                 E          A
I'm in a hurry to get things done
     F#m                 D   
Oh I rush and rush until life's no fun
A                        E        A
All I really gotta do is live and die
    F#m                D
But I'm in a hurry and don't know why

[Verse 2]
A        E    F#m
Can't be late
                  D
I leave plenty of time
                       A
Shaking hands with the clock
        E    F#m
I can't stop
                      D
I'm on a roll and I'm ready to rock

[Chorus 3]
   A                 E          A
Oh I'm in a hurry to get things done
     F#m                 D   
Oh I rush and rush until life's no fun
A                        E        A
All I really gotta do is live and die
    F#m                D               A  E
But I'm in a hurry and don't know why

[Bridge]
         D
I hear a voice
A                      E
That say's I'm running behind
                    F#m   D
I better pick up my pace

It's a race
                A
And there ain't no room
               E
For someone in second place

Riff chords  A  E  F#m  D  

             A                E       A
             Doo Doo Doo Doo  Doo Doo Doo Doo
             F#m              D
             Doo Doo Doo Doo  Doo Doo Doo Doo

   (OR Play riff )
   A          E          F#m      
e|--------------------------------------------|
B|--------------------------------------------|
G|--------------------------------------------|
D|------0-2-0---------0-----------------------|
A|--0-4-------4-2-2-4---4-2-0-0-2-4-2-0-------|
E|--------------------------------------------|
   D        A         E           A  
E--------------------------------------------|
B--------------------------------------------|
G--------------------------------------------|
D---------------------0-2-0------------------|
A-----------5-4-2-0-4-------4-2-4-2-0-0-h2-4-|
E--0-h2-2-5----------------------------------|

    F#m            D         [Chorus 4]
e|--------------------------------------------|
B|--------------------------------------------|
G|--------------------------------------------|
D|--------------------------------------------|
A|-------0----------5-4-2-0-------------------|
E|--h2-4---4-2-h2-5---------------------------|
                           A
                           I'm in a hurry

   E          
to get things done
D          F#m        D         E         
I rush and rush until life's no fun
A                        E        A
All I really gotta do is live and die
    D        A         D          E
But I'm in a hurry and don't know why

[Chorus 5]
A                 E          A 
I'm in a hurry to get things done
     F#m                 D  
Oh I rush and rush until life's no fun
A                        E        A            
All I really gotta do is live and die
    F#m                D          
But I'm in a hurry and don't know why

[Chorus 6]
A                 E          A
I'm in a hurry to get things done
     F#m                 D
Oh I rush and rush until life's no fun
A                     E           A
All I really gotta do is live and die
F#m                    D          
But I'm in a hurry and don't know why

[Outro]  (sang acapello)
I'm in a hurry to get things done
Oh I rush and rush until life's no fun
All I really gotta do is live and die
But I'm in a hurry and don't know why...


flyinglibra51
God Bless Glen Travis Campbell
            

* All the chords provided on here are the property of the respective artist, authors and labels, they are intended strictly for educational purposes,read,view and private study. All the contents are extracted from the internet and we are not getting any responsibility for the content.