Jackie O


Transposer


             -------------------------------------------------------------------------------
                          Jackie O-John Mellencamp
-------------------------------------------------------------------------------
Tabbed by:Nick V.
E-mail:[email protected]

From 1983's "Uh Huh".

Tuning:EADGBE


  C     F    G
e|---------------------------------------------------------------------------|
B|-8----10---12--------------------------------------------------------------|
G|-9----10---12--------------------------------------------------------------|
D|-10---10---12--------------------------------------------------------------|
A|-10---8----10--------------------------------------------------------------|
E|---------------------------------------------------------------------------|


C


C
So you went to a party at Jacqueline Onassis

If you're so smart, why don't you wear glasses?
     F                               C
So, you can see what you're doin' to me
             F                      G
So, you can see what tomorrow might bring

C
Underneath your breath you know I heard you cussin'

You were talkin' to my second cousin
     F                                         C
Were you talkin' about me? Were you talkin' about me?
                        F                      C
You better put on your glasses babe, so you can see
              F                       C
So, you can see what tomorrow might bring



         F   C         G       C
Can your daddy get us backstage passes?

You know that we love to dance
         F   C           G      C
Can your daddy give us backstage passes 
G
With all his political powers?
                                                         
With all his political powers?
                              F
With all his political powers?
        C                                         
It seems like to me, you could dance better than you do


C
So you went to a party at Jacqueline Onassis

If you're so smart, why don't you wear glasses?
     F                               C
So, you can see what you're doin' to me
             F                      G
So, you can see what tomorrow might bring


         F   C         G       C
Can your daddy get us backstage passes?

You know that we love to dance
         F   C           G      C
Can your daddy give us backstage passes 
G
With all his political powers?
                                                         
With all his political powers?
                              F
With all his political powers?
                  C
Don't you wish you could make 'em dance

C


Questions, comments, insults...BlindTerry333
            

* All the chords provided on here are the property of the respective artist, authors and labels, they are intended strictly for educational purposes,read,view and private study. All the contents are extracted from the internet and we are not getting any responsibility for the content.