Just In Time


Transposer


             Just do the tabbed part for the verses, and then the chords I know are 100% correct.  Have fun...



e|---------------------------------------------------------------------------|
B|---------------------------------------------------------------------------|
G|---------------------------------------------------------------------------|
D|---------------------------------------------------------------------------|
A|----------4-------4------4----4-----4-----4-----4-----4-----4-----4------7-|
E|------7-------7------7-----7-----7-----7-----7-----7-----7-----7-----7-----|

Something’s wrong with me
I'm not getting along with me
My eyes pasted on the ceiling
I can't get my mind to stop working

         G#m              E
I knew all the blackest blues 
          G#m                E
You were all my favorite tunes
         G#m            F#
This was all I had to lose

               B
Tried out for size
         F#
To my surprise
              G#m         F#
I can't fit in anybody's arms
            B
No more disguise
          F#
Cause I realize
             G#m        F#
I can't fit in anybody's arms
    G#m
Oh, you
    F#
Oh, you
Left just in time

e|---------------------------------------------------------------------------|
B|---------------------------------------------------------------------------|
G|---------------------------------------------------------------------------|
D|---------------------------------------------------------------------------|
A|----------4-------4------4----4-----4-----4-----4-----4-----4-----4------4-|
E|------7-------7------7-----7-----7-----7-----7-----7-----7-----7-----7-----|



Should have known to turn
Get ahead of the curve
But I've learned 
That failure sounds all to familiar to me
To just get my mind to stop working

        G#m               E
I knew all the blackest blues 
         G#m              E
You were all my favorite tunes
         G#m            F#
This was all I had to lose

       G#m             F#
As the light darkens again
       G#m                     F#
I lose myself within cause in the end
              E
Still I'm reminded
             G#m
Still I'm reminded
            

* All the chords provided on here are the property of the respective artist, authors and labels, they are intended strictly for educational purposes,read,view and private study. All the contents are extracted from the internet and we are not getting any responsibility for the content.