Like To Be You


Transposer


             Shawn Mendes
"Like To Be You"

Standard tuning.

  Bm  Aadd4 D    G
e|--------------------|
B|--------------------|
G|7----6----11---4----| Note: All following instances of A are the Aadd4 
D|0----0----0----0----| chord are written as A for ease of reading.
A|--------------------|
E|7----5----10---3----|


[Intro]
  Bm       Aadd4   D                Bm      Aadd4    D
e|----------------|----------------|----------------|----------------|
B|----------------|----------------|----------------|----------------|
G|----7-------6---|----11-----11---|----7-------6---|----11-----11---|
D|--0---0---0---0-|--0---0--0----0-|--0---0---0---0-|--0---0--0----0-|
A|----------------|----------------|----------------|----------------|
E|7-------5-------|10-----10-------|7-------5-------|10-----10-------|

[Verse]
  Bm       Aadd4   D                Bm      Aadd4    D
e|----------------|----------------|----------------|----------------|
B|----------------|----------------|----------------|----------------|
G|----7-------6---|----11-----11---|----7-------6---|----11-----11---|
D|--0---0---0---0-|--0---0--0----0-|--0---0---0---0-|--0---0--0----0-|
A|----------------|----------------|----------------|----------------|
E|7-------5-------|10-----10-------|7-------5-------|10-----10-------|

  Bm       Aadd4   D                G       Aadd4    B
e|----------------|----------------|----------------|----------------|
B|----------------|----------------|----------------|----------------|
G|----7-------6---|----11-----11---|----4-------6---|----7-------7---|
D|--0---0---0---0-|--0---0--0----0-|--0---0---0---0-|--0---0---0---0-|
A|----------------|----------------|----------------|----------------|
E|7-------5-------|10-----10-------|3-------5-------|7-------7-------|

Bm            A D
Don't cry, or do whatever makes you comfortable
Bm         A
I’m tired, too
        D                    Bm             A
There's nothin' left to say, let’s call the truce
       D                         G   A     Bm
'Cause I don't really wanna go to bed like this


[Pre-Chorus 1]
Bm A      D
   I'm so sorry
Bm      A           D
   That we're still stuck in the middle
Bm A      D
   I'm so sorry
G                A        Bm
   'Cause in the moment I


[Chorus]
  Bm                   A          D
I don't know what it’s like to be you
  Bm                   A            D
I don’t know what it's like but I’m dying to
   Bm            A            D
If I could put myself in your shoes
     G                  A          Bm
Then I'd know what it's like to be you


[Verse 2]
      Bm          A
Can I kiss you or not?
       D                             Bm          A
'Cause I’m not really sure right now of what you want
    D                    Bm         A
Are you still mad at me? I'm hopin' not
       D                        G
'Cause maybe we could go to the movies
            A               Bm
I know that always cheers us up, hey


[Pre-Chorus 2]
Bm A      D
   I'm so sorry
Bm      A           D
   That we're still stuck in the middle
Bm A      D
   I'm so sorry
G                A        Bm
   'Cause in the moment I


[Chorus]
  Bm                   A          D
I don't know what it’s like to be you
  Bm                   A            D
I don’t know what it's like but I’m dying to
   Bm            A            D
If I could put myself in your shoes
     G                  A          Bm
Then I'd know what it's like to be you


[Bridge 1]
Bm               A            D
Tell me what's inside of your head
   Bm              A           D
No matter what you say I won't love you less
    Bm           A         D
And I'd be lying if I said that I do
  G                    A          Bm
I don't know what it's like to be you
  G                    A          Bm
I don't know what it's like to be you


[Solo]
       Bm    A     D        Bm     A    D       Bm    A     D       G      A     Bm         
e|---------------------------------------------------------------------------------------------------|
B|-----------------------------7------------7p5h7--5--8---7---------------------------------5--------|
G|-7\6/7----------------7\6/7-----/9-\7-7-----------------------9\7----------------------------7-----|
D|------------9\7--7----------------------------------------7------------9-------------4/7-----------|
A|------------------------------------------------------------------7--9---7---5-5-------------------|
E|---------------------------------------------------------------------------------------------------|

[Bridge 2]
Bm A     D
   I get worried
Bm A       D
   I might lose you a little
Bm A     D
   Every time we
   G             A             Bm
   Every time we argue and get caught up in the moment


[Chorus]
  Bm                   A          D
I don't know what it’s like to be you
  Bm                   A            D
I don’t know what it's like but I’m dying to
   Bm            A            D
If I could put myself in your shoes
     G                  A          Bm
Then I'd know what it's like to be you


[Outro]
   Bm               A            D
So tell me what's inside of your head
   Bm              A           D
No matter what you say I won't love you less
           Bm         A           D
And I'd be lying if I said that I do
  G                    A          Bm
I don't know what it's like to be you
  G                    A          Bm
I don't know what it's like to be you
  G                    A    Bm
I don't know what it's like



***********************************

| /   Slide up
| \   Slide down
| h   Hammer-on
| p   Pull-off

***********************************
            

* All the chords provided on here are the property of the respective artist, authors and labels, they are intended strictly for educational purposes,read,view and private study. All the contents are extracted from the internet and we are not getting any responsibility for the content.