Live And Let Die


Transposer


             D#dim/A  x-x-x-2-4-2
Gsus4  3-3-5-5-3-3
G#M7  3-4-5-6-x-x


[Verse 1]

G             Bm              C            D    D#dim/A
When you were young, and your heart was an open book
G           Bm                 C
You used to say, "Live and let live"
              D                 D#dim/A           G
(You know you did, you know you did, you know you did)
            Bm            C                    A
But if this ever changing world in which we're livin'

          D A7sus4    D
eb|-------2----3--3/5-2-|
Bb|-------3----3------3-|
Gb|-------2----2------2-|
Db|---------------------|
Ab|---------------------|
Eb|---------------------|
Makes you give in and cry

eb|---------0h1------|
Bb|-----3------------|
Gb|---2--------------|
Db|-0----------------|
Ab|------------------|
Eb|------------------|


[Pre-Chorus]
                   G    Gsus4    G#m7    G
Say, "live and let die"
             G    Gsus4    G#m7
Live and let die


[Chorus: Instrumental]

eb|---------------------------------|---------------------------------|
Bb|---------------------------------|---------------------------------|
Gb|-0-2-3-----------0-2-3-----------|-0-2-3-----------0-2-3-----------|
Db|-------0-2-3-----------0-2-3-----|-------0-2-3-----------0-2-3-----|
Ab|-------------3-1-------------3-1-|-------------3-1-------------3-1-|
Eb|---------------------------------|---------------------------------|

eb|------------------|
Bb|------------------|
Gb|------------------|
Db|------------------|
Ab|------------------|
Eb|-3-3-3-3-3-3-3-3--|

eb|-6-2-4-0-2--6-2-4-0-2--6-2-4-0-1-3--0-1-3/5--|
Bb|---------------------------------------------|
Gb|---------------------------------------------|
Db|---------------------------------------------|
Ab|---------------------------------------------|
Eb|---------------------------------------------|


[Bridge]

C
What does it matter to ya?
G
When you got a job to do
           D
You got to do it well
           Em                   F
You got to give the other fella hell


[Chorus]

eb|---------------------------------|---------------------------------|
Bb|---------------------------------|---------------------------------|
Gb|-0-2-3-----------0-2-3-----------|-0-2-3-----------0-2-3-----------|
Db|-------0-2-3-----------0-2-3-----|-------0-2-3-----------0-2-3-----|
Ab|-------------3-1-------------3-1-|-------------3-1-------------3-1-|
Eb|---------------------------------|---------------------------------|


[Verse 2]

G           Bm                 C
You used to say, "Live and let live"
              D                 D#dim/A           G
(You know you did, you know you did, you know you did)
            Bm            C                    A
But if this ever changing world in which we're livin'

          D A7sus4    D
eb|-------2----3--3/5-2-|
Bb|-------3----3------3-|
Gb|-------2----2------2-|
Db|---------------------|
Ab|---------------------|
Eb|---------------------|
Makes you give in and cry

eb|---------0h1------|
Bb|-----3------------|
Gb|---2--------------|
Db|-0----------------|
Ab|------------------|
Eb|------------------|


[Pre-Chorus]
                   G    Gsus4    G#m7    G
Say, "live and let die"
             G    Gsus4    G#m7
Live and let die


[Chorus]

eb|---------------------------------|---------------------------------|
Bb|---------------------------------|---------------------------------|
Gb|-0-2-3-----------0-2-3-----------|-0-2-3-----------0-2-3-----------|
Db|-------0-2-3-----------0-2-3-----|-------0-2-3-----------0-2-3-----|
Ab|-------------3-1-------------3-1-|-------------3-1-------------3-1-|
Eb|---------------------------------|---------------------------------|

eb|---------------------------------|-------------------------------1-|
Bb|---------------------------------|-------------------------------3-|
Gb|-0-2-3-----------0-2-3-----------|-0-2-3-----------0-2-3---------3-|
Db|-------0-2-3-----------0-2-3-----|-------0-2-3-----------0-2-3---3-|
Ab|-------------3-1-------------3-1-|-------------3-1-------------3-1-|
Eb|---------------------------------|-------------------------------1-|
            

* All the chords provided on here are the property of the respective artist, authors and labels, they are intended strictly for educational purposes,read,view and private study. All the contents are extracted from the internet and we are not getting any responsibility for the content.