London Lights


Transposer


             -------------------------------------------------------------------------------
                             LONDON LIGHTS - With Confidence
-------------------------------------------------------------------------------
Tabbed by: https://www.youtube.com/channel/UC9sx6uz8KO5K-XnvXbxxgrQ
E-mail:

Tuning: HALF STEP DOWN  ( Eb Ab Db Gb Bb eb )

e|---------------------------------------------------------------------------|
B|---------------------------------------------4-----------------------------|
G|--------4--------4---------------4-----6-----------------------------------|
D|-----4-----4--------4---------4-----4-----4-----4--------------------------|  x 3
A|--6-----------7--------2---------------------------------------------------|
E|---------------------------------------------------------------------------|

e|---------------------------------------------------------------------------|
B|-----------------------------4--------4------------------------------------|
G|--------4--------4--------------4---------4--------------------------------|
D|-----4-----4--------4------------------------------------------------------|
A|--6-----------7--------2-----------2---------2-----------------------------| x 1
E|---------------------------------------------------------------------------|

e|---------------------------------------------------------------------------|
B|---------------------------------------------------------------------------|
G|---------------------------------------------------------------------------|
D|---------------------------------------------------------------------------|
A|---------------------------------------------------------------------------|
E|---------------------------------------------------------------------------|


You can play this through the verses or otherwise the chords are D# E B

The chords for the rest of the song are E B G# F#



You can watch my video here :) https://youtu.be/xgLGuiFRXv4
            

* All the chords provided on here are the property of the respective artist, authors and labels, they are intended strictly for educational purposes,read,view and private study. All the contents are extracted from the internet and we are not getting any responsibility for the content.