Lovin Mother Fo Ya


Transposer


             John Mellencamp
"Lovin' Mother Fo Ya"
From "Uh Huh" (1983)


[Intro]

"1, 2! 1, 2, 3, 4!"
"Hey, what the f**k?"

  G/D  A
e|--------------------------------------------------|
B|-0h2---2-2----------------------------------------|
G|-0h2---2-2----------------------------------------|
D|-0h2---2-2----------------------------------------|
A|-------0-0----------------------------------------|
E|--------------------------------------------------|

N.C.
Ah, oh...ah ah ah oh

N.C.
Ah, oh...ah ah ah oh

N.C.
Ah, oh...ah ah ah oh

N.C.
Ah, oh...ah ah ah oh


G/D  A  G/D  A


[Verse]

N.C.                     
Riding in the park with your golden tan
     G/D A                           A
You got your new tattoo, half devil, half man
                                              G/D A
Straddlin' a stallion made of chrome and steel
                                  A
Spittin' out fire, this cat's for real

[Chorus]

     D                                        G/D  A
He'll be a lovin' mother for ya, don't you know
   
e|-------------------------------------------------|
B|-7b9r7-------------------------------------------|
G|-7b9r7--5----------------------------------------|
D|----------7v-------------------------------------|
A|-------------------------------------------------|
E|-------------------------------------------------|

       D                                       G/D A           
He'll be a lovin' mother for ya, don't you know

                G/D  A
e|-------------------------------------------------|
B|-7b9r7---------0h2--2-2--------------------------|
G|-7b9r7--5------0h2--2-2--------------------------|
D|----------7v---0h2--2-2--------------------------|
A|--------------------0-0--------------------------|
E|-------------------------------------------------|
                               G/D  A
Everybody's got their attitudes
                             A
Some are nice and some are rude
                               G/D  A
They come up and slap your back
                                     A
They say, "Hey buddy, you can't do that."
                                       G/D  A
Everybody's got their opinions to protect
                                A
But after midnight they'll be sucking your neck

[Chorus]
        D
They'll be a suckin' mother for ya, don't you know

e|-------------------------------------------------|
B|-7b9r7-------------------------------------------|
G|-7b9r7--5----------------------------------------|
D|----------7v-------------------------------------|
A|-------------------------------------------------|
E|-------------------------------------------------|
        D
They'll be a suckin' mother for ya, don't you know

                G/D  A
e|-------------------------------------------------|
B|-7b9r7---------0h2--2-2--------------------------|
G|-7b9r7--5------0h2--2-2--------------------------|
D|----------7v---0h2--2-2--------------------------|
A|--------------------0-0--------------------------|
E|-------------------------------------------------|

[Verse]                               

N.C.
Squeeze me girl don't let me fall
N.C.
I want to walk, don't want to crawl
N.C.
Let me put my kickin' mule into your stall

[Chorus]

        D                                        G/D  A
'Cause I'm a kickin' mother for ya, don't you know

G/D A                A
Ah, oh...ah ah ah oh
        D                                        
 I'm a kickin' mother for ya, don't you know

G/D A                A
Ah, oh...ah ah ah oh

     D                                        
I'll be a lovin' mother for ya, don't you know

G/D A                A
Ah, oh...ah ah ah oh

     D                                     
I'll be a lovin' mother for ya

G/D A                               A
Don't you know, babe, I wouldn't tell no lie
            

* All the chords provided on here are the property of the respective artist, authors and labels, they are intended strictly for educational purposes,read,view and private study. All the contents are extracted from the internet and we are not getting any responsibility for the content.