Mi Angel De Amor


Transposer


             e------9--8------11------85--------13-8---------------]
b-----9--8------8--8----5--5-----10----10----8-8------]
g---10--9------9----8--5-------10----------7-----7----]
D-11--10--------------------0----------------------9--]
A---------------------------------------10------------]
E------------8-------5--------------------------------]


e------3---------5-----------5-----------3------]
b----5---5-----5---5-------6---6-------6---6----]
g---5-----5---5------5---5-------5---4-------4--]
D----------------------------------5------------]
A-3--------------------8------------------------]
E-----------5-----------------------------------]


C          Am    F           G7
UUUH UUUH  UUUH  UUUH  UUUH  UUUH

C          Am F         G7
ERES MI ANGEL ERES MI AMOR
C                    _Am
ERES LO QUE HABIA SONADO
     F           G7
E TRISTE   CORAZON
C      Am     F          G7
OH MI VIDA MI ANGEL DE AMOR
G7        C     Am
OH OH OH OOH MI CIELO
  F       G7
MII ADORACION

 C                   Am
DEL CIELO TUS HAS BAJADO
 F            G7
HA DARME TU AMOR
 C        Am   F              G7
YO SOY FELIZ CUANDO ME BESAS TU
 C             Am     F          G7
PORQUE ERES MI ANGEL  ANGEL DE AMOR

C      Am     F          G7
OH MI VIDA MI ANGEL DE AMOR
G7       C       Am     F       G7
OH OH OH OOH MI CIELO MII ADORACION
 C                  Am
DEL CIELO TU HAS BAJADO
 F            G7
HA DARME TU AMOR

(HABLADO)
  C       Am    F         G7
 "ERES MI ANGEL ERES MI AMOR
C                   _Am
ERES LO QUE HABIA SONADO
   F                     G7
MI TRISTE MI TRISTE CORAZON."

C      Am    F           G7
OH MI VIDA MI ANGEL DE AMOR
G7       C      Am     F       G7
OH OH OH OH MI CIELO MII ADORACION
 C                  Am
DEL CIELO TU HAS BAJADO
F             G7
HA DARME TU AMOR.

PARA TODOS LOS ROMANTICONES DE LOS 70'S ESPECIALMENTE LOS DE T J
 A QUE BAILAZOS LOS DEL RANCHO RODRIGUEZ
            

* All the chords provided on here are the property of the respective artist, authors and labels, they are intended strictly for educational purposes,read,view and private study. All the contents are extracted from the internet and we are not getting any responsibility for the content.