Michelles Song


Transposer


             Song: Michelle's Song
Artist: Shawn James
Album: Deliverance
Tab by: Charlie [email protected]

- Capo on 4th fret
- Tab and chords relative to capo
- Only movement between chords is tabbed, not the strumming pattern
- Each section has a unique pattern that he plays, which is tabbed out
- Timings synced with: https://youtu.be/8fIBYRTcRb8


The intro/verse is (relative to capo): C  E7   Am7   E7
                      or without capo: E  G#7  C#m7  G#7

The chorus is (relative to capo): F  Am7   E7
                 or without capo: A  C#m7  G#7


[Intro and Verse pattern]

    C                  E7                 Am7               E7    
e|----------0-------|--0---------------|--0--------------|--0---------------|
B|----------1-----0-|--0---------------|--1--------------|--0---------------|
G|-----0----0-----0-|--1---------------|--0--------------|--1---------------|
D|-----0h2--2-----0-|--0---------------|--2--------------|--0---------------|
A|--3-----------3---|--2---------------|--0--------------|--2---------------|
E|------------------|--0---------------|-----------------|--0---------------|

    C                  E7                 Am7                     E7 
e|----------0-------|--0---------------|--0--0--0----0--0----0-|--0---------|
B|----------1-----0-|--0---------------|--1--1--1/3--3--3\1--0-|--0---------|
G|-----0----0-----0-|--1---------------|--0--0--0----0--0----0-|--1---------|
D|-----0h2--2-----0-|--0---------------|--2--2--2/4--4--4\3--0-|--0---------|
A|--3-----------3---|--2---------------|--0--0--0----0--0----0-|--2---------|
E|------------------|--0---------------|-----------------------|--0---------|


[Chorus pattern]

    F            Am7          E7
e|------1--0--|-------0----|----0------0--0--0-|
B|------1--0--|-----1-1----|----0------0--0--0-|
G|----2----0--|---0---0----|----1--0h1-1--1--0-|
D|--3------0--|-2-----2----|----0--0---0-----0-|
A|------------|------------|----2--0h2-2-------|
E|------------|------------|--0-0------0-------|


Structure:


[Intro]
C  E7  Am7  E7
C  E7  Am7  E7


[Verse]
[0:32]
C                     E7                      Am7         E7     
You know you’re all I got so darlin don’t you ever let me go

  C                   E7                            Am7             E7 
I know you’ve been so true to me my love and that’s all I’ll ask of you

C                     E7                          Am7     E7
Friends have come and gone but you’re still there hanging on

    C           E7
I’m never gonna leave

   Am7                 E7
Forever we will always be


[Chorus] 
[1:33]
F         Am7        E7
All these times they pass just like the wind

F          Am7   E7
Everything will change

   F         Am7    E7
My love I’ll always be there by your side

  F               Am7 E7
Even when everything seems grey


[Verse]
[2:00]
C  E7  Am7  E7
C  E7  Am7  E7


[Chorus] 
[2:28]
F         Am7        E7
All these times they pass just like the wind

F          Am7   E7
Everything will change

   F         Am7    E7
My love I’ll always be there by your side

  F               Am7 E7
Even when everything seems grey


[Bridge] 
[2:53]
   Am         F          E
e|-0--------|-1--------|-0--------|-0-0--0-0--0-0--0--|
B|-1--------|-1--------|-0--------|-0-0--0-0--0-0--0--|
G|-2--------|-2--------|-1--------|-4-4--3-3--2-2--1--|
D|-2--------|-3--------|-2--------|-0-0--0-0--0-0--2--|
A|-0--------|-3--------|-2--------|-5-5--4-4--3-3--2--|
E|----------|-1--------|-0--------|----------------0--|

   Am         F          E          E
e|-0--------|-1--------|-0--------|-0------|
B|-1--------|-1--------|-0--------|-0------|
G|-2--------|-2--------|-1--------|-1------|
D|-2--------|-3--------|-2--------|-2------|
A|-0--------|-3--------|-2--------|-2------|
E|----------|-1--------|-0--------|-0------|


[Chorus]
[3:17]
F         Am7        E7
All these times they pass just like the wind

F          Am7   E7
Everything will change

   F         Am7    E7
My love I’ll always be there by your side

F                Am7   E7
Even when everything is grey


[Outro]
[3:43]
Am7  F7  E7
Am7  F7  E7
            

* All the chords provided on here are the property of the respective artist, authors and labels, they are intended strictly for educational purposes,read,view and private study. All the contents are extracted from the internet and we are not getting any responsibility for the content.