Midnight Dove


Transposer


             Midnight Dove - Shawn James

Capo I

Chords:
Em   (022000)
D    (xx0232)
Am   (x02210)
B7   (x21202)
D/F# (200232)


[Intro]

e|-7--------7---------7-------5---------5--------5-------3--------3--------3-------|
B|----0---------0--------0-------0---------0---------0------0--------0--------0----|
G|------0---------0----------------0---------0----------------0--------0-----------|
D|---------------------------------------------------------------------------------|
A|----------7---------7-----------------5--------5----------------3--------3-------|
E|-0--------------------------0--------------------------0-------------------------|

e|-2-------2--------2-------|
B|---0--------0--------0----|
G|-----0--------0-----------|   x2
D|--------------------------|
A|---------2--------2-------|
E|-0------------------------|

e|-7--------7/10--------7-------5--------5/7-------5------3-------3-------3------|
B|---0-----------0--------0-------0----------0-------0------0-------0-------0----|
G|-----0-----------0----------------0----------0--------------0-------0----------|
D|-------------------------------------------------------------------------------|
A|----------7/10---------7----------------5/7-------5--------------3-------3-----|
E|-0----------------------------0--------------------------0---------------------|

e|-2----3----5----7-----7-------7-------7-----5--------5-------5-------3--------2/3------2------0--|
B|---0----0----0----0-----0-------0-------0------0-------0--------0------0----------0------0----0--|
G|--------------------------0-------0--------------0-------0---------------0----------0---------0--|
D|----------------------------------------------------------------------------------------------2--|
A|------3----5----7-------------7-------7--------------5-------5----------------2/3------2------2--|
E|-0--------------------0---------------------0------------------------0------------------------0--|


Em
Midnight Dove

Why do you wander

On through clouded skies? 
           D      Am
There must be a glimpse 
           Em
Of hope in sight


Em
Spread your wings

And take to flight

Leave the past behind
     D         Am
The dawn will birth 
             Em
A brand new light


    Am
So fly on and
 B7
Never look 
 G        D/F#      Em
Back from where you came 
Am            B7
The sky opens up and it's
 G               D/F#
Calling out your name

Am
Cause all you got is all 
Am
All you got is all 
Am            Em      D Am
All that you need


   Em
I found myself 
D
Found myself
  Am
Amongst the thorns and weeds 
     Em
You found yourself 
D
  Found yourself
  Am
Amongst the beautiful trees 
                   Em
And we're not the same 
D                Am
  No we're not the same 
                 Em
No we're not the same 
D                Am
  No we're not the same 


              Em
Cause I gotta blow like the wind
D
Flow like the sea 
Am
Deep down inside of 

Every part of me 
   Em
My heart's been aching 
        D                          Am
For the freedom to stretch out my wings


         Em
Now with every move I make 
    D
And every breath I take
Am
My mind's been worrying 

About what's at stake 
    Em                     D 
But I just gotta let them go 


          Am
With the wind 
           Em
Let it all go
           D
Let it all go 
       Am
Let it all go 

With the wind 


          Em
Let it all go 
           D
Let it all go
        Am
Let it all go 
Em
Midnight Dove 
    D             Am
Why do you wander on?
            

* All the chords provided on here are the property of the respective artist, authors and labels, they are intended strictly for educational purposes,read,view and private study. All the contents are extracted from the internet and we are not getting any responsibility for the content.