Midnight Rider


Transposer


             [Chords]
D: X20230
Gm: X00330
C: X02012

[Intro]
[Main riff] (x4)
(D, let ring throughout)
   1  2  3  4  1  2  3  4
D|---00--0-------00--0---|
B|---33--3-------33--3---|
G|---22--2-------22--2---|
D|--0---0-------0---0----|
G|22----------22---------|
D|-----------------------|

[Verse]

(Main riff throughout)

I got to run to keep from hiding
And I'm bound to keep on riding
And I've got one more silver dollar

[Chorus]
        Gm
But I'm not gonna let them catch me, no
C                                      Main Riff
Not gonna let them catch the midnight rider

[Verse]
I don't own the clothes I'm wearing
And the road goes on forever
And I've got one more silver dollar
But I'm not gonna let them catch me, no
Not gonna let them catch the midnight rider

[Solo]
[Main riff] (x4)
(D, let ring throughout)
   1  2  3  4  1  2  3  4
D|---00--0-------00--0---|
B|---33--3-------33--3---|
G|---22--2-------22--2---|
D|--0---0-------0---0----|
G|22----------22---------|
D|-----------------------|

[Verse]
C  Gm (3x)

Main Riff 4 times

[Verse]
I've gone past the point of caring
Some old bed I'll soon be sharing
And I've got one more silver dollar

[Chorus] (3x)
No I'm not gonna let them catch me, no
Not gonna let them catch the midnight rider

[Outro]
[Main riff]
(D, let ring throughout)
   1  2  3  4  1  2  3  4
D|---00--0-------00--0---|
B|---33--3-------33--3---|
G|---22--2-------22--2---|
D|--0---0-------0---0----|
G|22----------22---------|
D|-----------------------|
            

* All the chords provided on here are the property of the respective artist, authors and labels, they are intended strictly for educational purposes,read,view and private study. All the contents are extracted from the internet and we are not getting any responsibility for the content.