Mundo Loco


Transposer


             Hola de nuevo! Aquí otra canción más que ha salido bastante bien.
Dudas, sugerencias... Lo que sea --> [email protected]


Intro:

    Guitarra 1
e |---------------------------|
B |--15----15----15----15-----| x4
G |-----14----14----14----14--|
D |---------------------------|
A |---------------------------|
E |---------------------------|

    Guitarra 2
e |----------------------------------|
B |----------------------------------|
G |--7-------------------------------|
D |--7-x8---9------7---5------7------|
A |--5------9-x7---7---5-x8---7-x8---|
E |---------7------5---3------5------|


Verso:

    Guitarra 1
e |-----------------------------------|
B |-----------------------------------|
G |--7---7---7---7---6---6---6---6----|
D |----7---7---7---7---7---7---7---7--|
A |-----------------------------------|
E |-----------------------------------|

    Guitarra 2:

D                         Bm
Dónde crees que tú te vas tirando el tiempo y nada más
G                   A
La vida te sonríe y tú no te preguntas de qué va
D                        Bm
Te conformas con aprobar pero la vida es mucho más
G                   A               D   Bm   G   A
El mundo está loco, loco, loco de giraaaaaaaaaaaaaaaaaaaar
          D   Bm             G           A
Loco de giraaaaaaaaaaaaaaar, aaaaaaaaah


Estribillo:

D          A          D      A
Y un mundo loco de universo aparte
D          A        D     A
Y un mundo loco con mucho arte
D        A        D        A
Un mundo para ti, un mundo para mí
D        A              D
Un mundo loco que hace así


Verso:

D                       Bm
Hazte a un lado y sin parar, consigues metas que jamás
G                       A
Te habías imaginado que nunca llegaras a alcanzar
D                      Bm
Ese tiempo que te da momentos que no olvidarás
G                         A             D   Bm   G   A
Ese estilo de vida que te gusta a ti llevaaaaaaaaaaaaaaaaar
                     D   Bm                 G           A
Que te gusta a ti llevaaaaaaaaaaaaaaaaaaar, aaaaaaaaah


Estribillo:

D          A          D      A
Y un mundo loco de universo aparte
D          A        D     A
Y un mundo loco con mucho arte
D        A        D        A
Un mundo para ti, un mundo para mí
D        A              D
Un mundo loco que hace así

D          A          D      A
Y un mundo loco de universo aparte
D          A        D     A
Y un mundo loco con mucho arte
D        A        D        A
Un mundo para ti, un mundo para mí
D        A              D
Un mundo loco que hace así


Puente:  D - Bm - G - A  -> 2 veces


D         Bm      G  A
Cambia el mundo solo
D      Bm        G  A
Y encontrar un modo


Estribillo:

D          A          D      A
Y un mundo loco de universo aparte
D          A        D     A
Y un mundo loco con mucho arte
D        A        D        A
Un mundo para ti, un mundo para mí
D        A              D
Un mundo loco que hace así
            

* All the chords provided on here are the property of the respective artist, authors and labels, they are intended strictly for educational purposes,read,view and private study. All the contents are extracted from the internet and we are not getting any responsibility for the content.