My House


Transposer


             As performed on Sunday Brunch 10/4/16 by Alex and Lynn: https://www.youtube.com/watch?v=AvDBdM5mPeU


[Verse]

  I feel you in these walls... 
e|------------------------|------------------------|
B|----------8----12----7--|----------8----12----5--|
G|------------------------|------------------------|
D|------------------------|------------------------| x4
A|----------7----10----5--|----------7----10----3--|
E|------------------------|------------------------|

You're a cold air creeping in 
Chill me to my bones and skin 
I heard you down the hall 
But it's vacant when I'm looking in
Oh, who let you in? 
You walk around like you own the place
But you never say anything 
I caught you walking straight through my walls 
Guess it was all my fault 
I think I let you in 


[Chorus]

C                          Am
Never thought that I would feel like this 
Em                      D
Such a mess when I'm in your presence, I’ve 
C                             Am
Had enough, think you've been making me sick 
Em                    G
Gotta get you out of my system, yeah 
C            Am
It's my house 
                              Em
And I think it's time to get out
 
It's my soul
D
It isn't yours anymore 
C             Am
It's my house 
                          Em
I think it's time to get out 
G
Yeah, I think it's time to get out 


[Verse 2]

  You're at my bedroom door...
e|------------------------|------------------------|
B|----------8----12----7--|----------8----12----5--|
G|------------------------|------------------------|
D|------------------------|------------------------| x4
A|----------7----10----5--|----------7----10----3--|
E|------------------------|------------------------|

Heard your footsteps on the floor 
Closer than ever before 
And now you're in my room 
You're a cold air creeping through 
Under sheets avoiding you 
You walk around I can hear you pace 
Circling my bed frame 
Oh, but now we're face to face 
Head on my pillowcase 
But darling, you can't stay 


[Chorus]

C                          Am
Never thought that I would feel like this 
Em                      D
Such a mess when I'm in your presence, I’ve 
C                             Am
Had enough, think you've been making me sick 
Em                    G
Gotta get you out of my system, yeah 
C            Am
It's my house 
                              Em
And I think it's time to get out
 
It's my soul
D
It isn't yours anymore 
C             Am
It's my house 
                          Em
I think it's time to get out 
G 
Yeah, I think it's time to get out
            

* All the chords provided on here are the property of the respective artist, authors and labels, they are intended strictly for educational purposes,read,view and private study. All the contents are extracted from the internet and we are not getting any responsibility for the content.