Naranjada


Transposer


             -------------------------------------------------------
por el momento no tengo terminados los solos pero les 
mando los akordes de la kancion
dudas komentarios [email protected]
icq: 58677421
esta kancion kiero dedikarsela a susana
(ya no te enojes konmigo)
-------------------------------------------------------
akordes
  A5     A#5    B5     C5     C#5      D5    D#5
E-----------------------------------------------
B-----------------------------------------------
G---------------4------5-------6-------7-------7
D--7-----8------4------5-------6-------7-------7
A--7-----8------2------3-------4-------5-------6
E--5-----6--------------------------------------

NARANJADA

A5                  C5                      B5
te-tentativas de futuros sobrepuestas sin razon
nada pasa sin que kaigan las esferas de pluton,
se k nadie puede ver k mi destino es infernal
no nacimos para ver pasar la huellas del dragon

SOLO

A5                C5                           B5
puedo verlo puedo ver k es un insekto de infeccion
mumu-muestrame lo k has guardado para mi  dolor,  
A5
ko-ko-korazon

(despues de esta parte van estos akordes solos)
A5 C5 D5 C5 2veces

(SOLO)

A5                C5                    B5
y esa vez voy atronarte la mandibula de o
pela dientes no me importa tienes kola de raton

(aki suben medio tono los akordes)

A#5                C#                       C
las burbujas de tu sola ya no kausan sensacion
limonada sin sabores kon frekuencia a imitacion
nana-naranjada

despues A#5 C#5 D#5 C#5 2veces
            

* All the chords provided on here are the property of the respective artist, authors and labels, they are intended strictly for educational purposes,read,view and private study. All the contents are extracted from the internet and we are not getting any responsibility for the content.