No Voy A Dejarte


Transposer


             Q STA ROMPIENDO TODO!!

MI METRO ES 

AGUANTE CORRIENTES!!!

INTRO SOBRE:
G-D-C

e|--------------------------------|
B|-1/3-3-3/1----------------------|
G|-2/4-4-4/2--0----0h2h0----------|
D|--------------0--------0-2/5----|
A|--------------------------------|
E|--------------------------------|

e|---------------------------------------------------|
B|-3/1--3/1--1/3-3-3/1--1/3-3-3/1--------------------|
G|-4/2--4/2--2/4-4-4/2--2/4-4-4/2--0----0h2h0--------|
D|-----------------------------------0--------0-2/5--|
A|---------------------------------------------------|
E|---------------------------------------------------|


Y CUANDO STA X COMENZAR EL BERSO ACE:
(escuchen bien)
e|-----------------|
b|------15---------|
g|--14b----14b-----|


G       D-----C             G           D--C
 Una vida mejor no es lo q se anda buscando
G               D----C                 G       D--C
 mezcla de sed de veneno con ansias de despegar
G               D     C
 los nervios y el dolor
            G         D  C
no van a alsarce con nada
G                D--C               G          D--C
 culkiera puede allarte rondando el mejor lugar

Em                   C
no me importa si hoy no sos tan buena
      D
si estas si no estas
        C
si me pierdo x vos
Em                          C
no existe un dios ni otra fuerza
             D
q pueda obligarme a dejarte

G-C-D  C            G-C-D-C
noooo no voy a dejarte
G-C-D  C           G-C-D-C
noooo quiero dejarte
G-C-D  C          G-C-D-C
noooo puedo dejarte
G-C-D C                   G-C-D-C
nooo  no es q no kiera dejarte!!!


((EN ESTE TEMA RE Y DO SE TOCAN MEDIO JUNTOS))


SALUDO GENTEª!!!


AGUANTE LAS 1000
            

* All the chords provided on here are the property of the respective artist, authors and labels, they are intended strictly for educational purposes,read,view and private study. All the contents are extracted from the internet and we are not getting any responsibility for the content.