Noizbait


Transposer


             |------10-12-12----12-10----10-10-10-10-10-9----|
|-8/10----------10-------10---------------------|
|-----------------------------------------------|
|-----------------------------------------------|
|-----------------------------------------------|
|-----------------------------------------------|

             Bm                     G
|------10-12-12-14-12-10------10-12-15-12-15-14-|
|-8/10-------------------8/10-------------------|
|-----------------------------------------------|
|-----------------------------------------------|
|-----------------------------------------------|
|-----------------------------------------------|
x2

[Verse]
D        Bm        G            A
Isiltasunak non zauden galdetzen dit noiznahi
D       Bm        G          A
zure izena mila aldiz oihukatuz noiznahi
Bm          G         A      D
egutegiko orriak aurpegiratu dit
Bm              G            A
zenbat gau pasatu dudan itzarrik
zu ez zadenetik

D          Bm        G          A
Aska gaitezen malkoz esan zenidan noizbait
D        Bm          G        A
izango dugu gure aukera seguru noizbait
Bm            G          A          D
geroztik noraezean barneko ekaitzetan
Bm                G            A            D
arraunean ibiltzen naiz zure mezu baten zain

[Pre-chorus]
Bm        E
Bila nazazu
Bm             E
izar bako gauetan
Bm         E    G          A
gida nazazu zure itsasertzera noizbait

[Chorus]
D          A
Iritsiko naiz
D           G
argiak jarraituz
D         A             G       A
iritsiko naiz berriz saiatuz

noizbait
D          A
itzuliko naiz
D           G
aurkituko zaitut
D         A            G       A
begiak itxiz gertu sentituz

[Pre-chorus]
Bm        E
Bila nazazu
Bm             E
izar bako gauetan
Bm         E    G          A
gida nazazu zure itsasertzera noizbait

[Chorus]
D          A
Iritsiko naiz
D           G
argiak jarraituz
D         A             G       A
iritsiko naiz berriz saiatuz

noizbait
D          A
itzuliko naiz
D           G
aurkituko zaitut
D         A            G       A
begiak itxiz gertu sentituz
            

* All the chords provided on here are the property of the respective artist, authors and labels, they are intended strictly for educational purposes,read,view and private study. All the contents are extracted from the internet and we are not getting any responsibility for the content.