Opportunity


Transposer


             Well this is my first so tab so yeah....

O yeah Capo on 1st fret

Pete Murray-Opportunity
Verse Part1
E|---3-3-3-3---0-0-0---3-3-3-3---0-0-0---3-3-3-3-|
B|---3-3-3-3---0-0-0---3-3-3-3---0-0-0---3-3-3-3-|
G|---0-0-0-0---0-0-0---0-0-0-0---0-0-0---0-0-0-0-|
D|---0-0-0-0-0-2-2-2-0-0-0-0-0-0-2-2-2-0-0-0-0-0-|
A|---2-2-2-2-0-2-2-2-0-2-2-2-2-0-2-2-2-0-2-2-2-2-|
E|-3-3-3-3-3-2-0-0-0-2-3-3-3-3-2-0-0-0-2-3-3-3-3-|
Verse Part2
E|-0-0-0---0-0-0---0-0-0---0-0-0---0-0-0-|
B|-1-1-1---1-1-1---1-1-1---1-1-1---1-1-1-|
G|-0-0-0-0-2-2-2-0-0-0-0-0-2-2-2-0-0-0-0-|
D|-2-2-2-0-2-2-2-0-2-2-2-0-2-2-2-0-2-2-2-|
A|-3-3-3-2-0-0-0-2-3-3-3-2-0-0-0-2-3-3-3-|
e|---------------------------------------|

Verse part3
E|---0-0-0---3-3-3-3---0-0-0---3-3-3-3--|
B|---0-0-0---3-3-3-3---0-0-0---3-3-3-3--|
G|---0-0-0---0-0-0-0---0-0-0---0-0-0-0--|
D|---2-2-2-0-0-0-0-0-0-2-2-2-0-0-0-0-0--|
A|---2-2-2-0-2-2-2-2-0-2-2-2-0-2-2-2-2--|
e|---0-0-0-2-3-3-3-3-2-0-0-0-2-3-3-3-3--|

Couldn't figure the riff between each chord
Chorus
     D           Am
Hold on now your exits here,
     C                G
it's waiting just for you,
      D                  Am
don't pause too long its fading now,
    C              G     D
its ending all too sooooon,
       Am
you'll see. x2 sooooon you'll see
-------
2nd Chorus
     D           Am
Hold on now your exits here,
     C                G
it's waiting just for you,
      D                  Am
don't pause too long its fading now,
    C              G     D
its ending all too sooooon,
       Am
you'll see. x6 sooooon you'll see

Verse P1
Verse P2
Verse P3
Chorus 1
Verse P1
Verse P2
Verse P3
Piano Solo>>play verse
Chorus 2

I think i did alright :P
            

* All the chords provided on here are the property of the respective artist, authors and labels, they are intended strictly for educational purposes,read,view and private study. All the contents are extracted from the internet and we are not getting any responsibility for the content.