Opportunity


Transposer


             -------------------------------------------------------------------------------
                             Opportunity- Pete Murray
-------------------------------------------------------------------------------
Tabbed by:James
Email:[email protected]
My guitar teacher taught me how to play the verse properly and i listened to the song 
heard that the other opportunity tabs are missing a chord between G and Em. So i hope it 
good to you.
Once you listen to the song you will understand completely how there is three chords in 
main riff.

The chords used in this song that are different to the other tabs include:

e ---|---|---|---|---|
B ---|---|---|---|---|
G ---|-x-|---|---|---|
D ---|-x-|---|---|---|
A ---|---|---|---|---|
E ---|---|---|---|---| Am7 (Chorus only)

e|---|---|---|---|---|
B|---|---|---|---|---|
G|---|---|---|---|---|
D|---|---|---|---|---|
A|---|---|---|---|---|
E|---|-x-|---|---|---|F# Bass note(emphasise the bass note but continue to strum)
e|---|---|---|---|---|
B|---|---|---|---|---|
G|---|---|---|---|---|
D|---|---|---|---|---|
A|---|-0-|---|---|---|
E|---|---|---|---|---|B Bass note(emphasise the bass note but continue to strum)

CAPO 1st fret- Pete plays it with a CAPO but you don't have to
During the tab F= F# Bass and B= B bass

Intro
G F Em F
G F Em
C B Am B
C B Am F
Verse 1
G   F  Em               F  G
So it goes another lonely day
G        F  Em                 B    C
Your saving time but your miles away
          B    Am                    B  C
Your flowers drowning in some bitter tea
          B    Am         F
you see your last opportunity
G     F    Em                F   G
Find your mirror gonna look inside,
         F    Em           B     C
you see the talent you always hide,
      B   Am                B    C
don't go kid yourself no not today
          B  Am               F  G
your satisfactions not to far away,   ( The last G goes stright into chorus)

Chorus
G     D          Am7
Hold on now your exits here,
   C                 G
its waiting just for you,
       D                Am7
don't pause to long its fading now
    C             G     D           Am7  C
its ending all to soooooon you'll see
G       D          Am7  C
 Soooooon you'll see.

Verse 2
      G   F  Em                 F  G
The caffe's warm but your milk is sour,
   G        F  Em                 B    C
your life is short but your here to flower
       B    Am              B  C
dream yourself along another day
       B    Am         F
and never miss the opportunity
G     F    Em                  F   G
don't be scared of what you cannot see,
F    Em            B       C
your only fear is possibility
      B   Am                B    C
never wonder what the hell went wrong,
          B     Am               F  G
your second chance may never come along

Chorus
G     D          Am7
Hold on now your exits here,
C                 G
its waiting just for you,
 D                Am7
don't pause to long its fading now
 C             G     D           Am7  C
its ending all to soooooon you'll see
G       D          Am7  C
Soooooon you'll see.

Solo
(Supposed to be piano but can play on guitar. If 2 guitars playing one can keep 
same as verses)
e|-------|------------------|------------------|---------------------------|
B|--0----|------------------|--0--------0------|----------3--------0-------|
G|-----2-|--0-------0-----2-|----------------2-|---0-----------------------|
D|-------|------------------|------------------|---------------------------|
A|-------|------------------|------------------|---------------------------|
E|-------|------------------|------------------|---------------------------|

e|---------0-----|-----------------|0----0--------------------------------|
B|-1-------1---3-|--1------1---3---|1----1---3---1---1---3----------------|
G|-------------4-|--2------2---4---|---------4---2---2---4----------------|
D|---------------|-----------------|--------------------------------------|
A|---------------|-----------------|--------------------------------------|
E|---------------|-----------------|--------------------------------------|
Straight back into G

Chorus
G     D          Am7
Hold on now your exits here,
C                 G
its waiting just for you,
D                Am7
don't pause to long its fading now
C             G     D           Am7  C
its ending all to soooooon you'll see

Outro
G      D          Am7  C
  Soooooon you'll see.
G      D          Am7  C
  Soooooon you'll see.
G      D          Am7  C
  Soooooon you'll see.
G      D          Am7  C
  Soooooon you'll see.
G      D          Am7  C  G
  Soooooon you'll see.

Remember for F, emphasise the 6th string, and lightly play the rest of the strings.
Plz rate my tab i think it is pretty good.:)Ist tab i have done.
            

* All the chords provided on here are the property of the respective artist, authors and labels, they are intended strictly for educational purposes,read,view and private study. All the contents are extracted from the internet and we are not getting any responsibility for the content.