Orphan


Transposer


             [Intro]
     G                                   Am
e|---3---------2---------0---------------------------0----------------------|
B|------0---------------------------1p0-----------------0------0h1----------|
G|----------------0---------0----------------0h2------------2---------------|
D|---------0----------0---------0--------0--------2------2--------2-----2---|
A|---------------------------------------------0-----0---------0-----0------|
E|---3-------------------3----------3---------------------------------------|

    D/G                                   G
e|-----2---------0------------------------------3--------------------------|
B|--------3---------1---3--------1--0---------------------------0--------0-|
G|--------------------------2-----------------0-------------0--------------|
D|--------0-----------0--------0-------0------0-------0-------0-------0----|
A|-------------------------------------------------------------------------|
E|--3---------3---------3--------3--------3-------3-------3-------0h2------|

[Verse 1]
G                        Am
Sir, I am a dirty little orphan
    D                             G
And everything I have is what you see
        G                          Am
There's nothing in my dirty little pockets
   D                         G
No tricks up my dirty little sleeve
  Am             C              G G/F# Em
I understand the reason why you suffer
  Am         C         G
Desire's an elusive enemy
Bm                              Am
You can pull the mask off for a moment
     C                                G
Your dirty little secret is safe with me

[Interlude]
     G                                   Am
e|---3---------2---------0---------------------------0----------------------|
B|------0---------------------------1p0-----------------0------0h1----------|
G|----------------0---------0----------------0h2------------2---------------|
D|---------0----------0---------0--------0--------2------2--------2-----2---|
A|---------------------------------------------0-----0---------0-----0------|
E|---3-------------------3----------3---------------------------------------|

    D/G                                   G
e|-----2---------0------------------------------3--------------------------|
B|--------3---------1---3--------1--0---------------------------0--------0-|
G|--------------------------2-----------------0-------------0--------------|
D|--------0-----------0--------0-------0------0-------0-------0-------0----|
A|-------------------------------------------------------------------------|
E|--3---------3---------3--------3--------3-------3-------3-------0h2------|

[Verse 2]
G                              Am
We can sit and contemplate whatever
D                                G
We could play a game of hide and seek
G                                      Am
Close your eyes and count back down to never
 D                                  G
Eventually you'll end up where I'll be
Am                C                G  G/F# Em
I can tell you're getting close to it now
   Am             C               G
If only you could give yourself a hint
Bm                                 Am
You've been looking out for me for so long
C                             G
How about you started lookin' in

[Outro]
     G                                   Am
e|---3---------2---------0---------------------------0----------------------|
B|------0---------------------------1p0-----------------0------0h1----------|
G|----------------0---------0----------------0h2------------2---------------|
D|---------0----------0---------0--------0--------2------2--------2-----2---|
A|---------------------------------------------0-----0---------0-----0------|
E|---3-------------------3----------3---------------------------------------|

    D/G                                   G
e|-----2---------0------------------------------3---------------------|
B|--------3---------1---3--------1--0--------------0------------------|
G|--------------------------2-----------------0-------0---------------|
D|--------0-----------0--------0-------0------0-----------------------|
A|--------------------------------------------------------------------|
E|--3---------3---------3--------3--------3---------------------------|
            

* All the chords provided on here are the property of the respective artist, authors and labels, they are intended strictly for educational purposes,read,view and private study. All the contents are extracted from the internet and we are not getting any responsibility for the content.