Para Un Niño


Transposer


             INTRO:

1|--------------0----1--3---3/5--5--3--3--1---1/3--3--1--0--------------
2|---0--1--3------------------------------------------------------3--1--
3|----------------------------------------------------------------------
4|----------------------------------------------------------------------
5|----------------------------------------------------------------------
6|----------------------------------------------------------------------

NOTA: en la canción se nota claramente una segunda
guitarra, este punteo es de la primera guitarra


I.       C
Quisiera que ya no crezcas más
             G
Que dios te guarde esta corta edad
       D           C                 G
Y que nada de tu infancia se vuelva fugaz

I.
Nunca abandones esta niñez
Si es lo mejor que puedes tener
Aunque poco es disfrutarla una sola vez

II.     C                  G
Quedate así, como hasta ahora
        D
De tobogán
         C          G
Plaza y vuelos de palomas

1|------------------0----1--3-----5-----3--5--7--9---
2|---0----1--3---------------------------------------
3|---------------------------------------------------
4|---------------------------------------------------
5|---------------------------------------------------
6|---------------------------------------------------
Niño travieso y explorador
De pantalón corto y tirador
Haz que el tiempo no se acuerde de venir por vos

I.
Pequeño que gustas pulular
que eres feliz solo con jugar
Por favor no te hagas grande vuélvete haragán

II.
Porque crecer traerá aparejado
decir adiós
A tenerte aquí en mis brazos

II.
Porque crecer traerá aparejado
Decir adiós
A dormirte así en mis brazos

PD: I y II indican ritmo y ubicación de los tonos,
II es una especie de estribillo.
            

* All the chords provided on here are the property of the respective artist, authors and labels, they are intended strictly for educational purposes,read,view and private study. All the contents are extracted from the internet and we are not getting any responsibility for the content.