Peleador


Transposer


             G                    D        G
Me pasé toda la mañana (repartiendo)
    G                           D       G
Las noticias llegan tempranas (repartiendo)
       C
To? los días de la semana
                            G
Llevando diarios pa? todo el pueblo,
       C
Las mentiras y las verdades,
                   A           D
Cuales son cuales quien va a saber?

A las doce vuelvo pa? casa (para el puchero)
Que mi negra me ha preparado (y eso está bueno)
Y me cuenta que en el mercado
El puesto de Carlos está clausurado
Que vinieron esos de traje
Y dijeron que no tenía C.U.I.T

 C
Peleador, siempre seguir luchando
 G                               D
Peleador, la gente de mi barrio tiene la voz
                      G    G7
Cansada de pedirle a Dios.
 C
Peleador, nunca bajes la guardia
  G                             D
Peleador, parece que al final tenías razón,
                      G      D7
Nuestro destino es Peleador.

Los domingos voy a la cancha (cocacolero)
Y me meto un rato en la hinchada (ponga más huevos)
Lo que sale de la semana
Desaparece en un momento
Y se olvidan todos los males,
Solo hay puteadas pa?l referí.

Me pasé toda la mañana (repartiendo)
Las noticias llegan tempranas (repartiendo)
To? los días de la semana
Llevando diarios pa? todo el pueblo,
Las mentiras y las verdades,
Cuales son cuales quien va a saber?

Peleador, siempre seguir luchando
Peleador, la gente de mi barrio tiene la voz
Cansada de pedirle a Dios.
Peleador, nunca bajes la guardia
Peleador, parece que al final tenías razón,
Nuestro destino es Peleador.
INTRO
1-----7-7--------7-7--------7-7--7-8-7------------------------------
2--------10-8-------10-8-------10-----10----10-10-8-7----10-10-8-7--
3--7-7--------7-7--------7-7-------------7-7----------7-7-----------

1--------------7--------12-12-12-10-8-12-12-12-10-8-12-12-12-10-9-10--
2----10-10-9-10-10-8-8-8--------------------------------------------12
3-7-7-----------------------------------------------------------------

1-----12-12-12-10-8-12-12-12-10-8-12-12-12-10-9-10-
2-8-8----------------------------------------------
3--------------------------------------------------

FINAL
1-12-10-12-10-12-10-12-10-12-10-12-10-8-10-8-10-8-10-8-10-8-10---

1-8-7---7-8-10-7--------------------------------------------------
2-----10--------10-8-8-7-6----------------------------------------

1-12-10-12-10-12-10-12-10-12-10-12-10-8-10-8-10-8-10-8-10-8-10---

1-8-7---7-8-10-7--------13-----------------------------------------
2-----10--------10-8-13--------------------------------------------

                                   ARIEL, POR SIEMPRE FACONERO!
            

* All the chords provided on here are the property of the respective artist, authors and labels, they are intended strictly for educational purposes,read,view and private study. All the contents are extracted from the internet and we are not getting any responsibility for the content.