Pops


Transposer


             [Intro]
e|-----7-----------7-----5-----3--------3----2------0---------0--------------|
B|-----7-----------7-----5-----3--------3----2------0---------0--------------|
G|-----7-----------7-----6-----4--------4----2------0---------0--------------|
D|-----9---x4------9-----7-----5--x4----5----4------2---x4----2--------------|
A|-----9-----------9-----7-----5--------5----4------2---------2--------------|
E|-----7-----------7-----5-----3--------3----2------0---------0--------------|

e|-----2----3---------0----5-------------------------------------------------|
B|-----2----3---------2----2-------------------------------------------------|
G|-----2----4---------3----3-------------------------------------------------|
D|-----4----5---x4----4----0-------------------------------------------------|
A|-----4----5---------4----4-------------------------------------------------|
E|-----2----3---------0----0-------------------------------------------------|

[Verse]
e|-----7-----------7-----5-----3--------3----2------0---------0--------------|
B|-----7-----------7-----5-----3--------3----2------0---------0--------------|
G|-----7-----------7-----6-----4--------4----2------0---------0--------------|
D|-----9---x4------9-----7-----5--x4----5----4------2---x4----2--------------|
A|-----9-----------9-----7-----5--------5----4------2---------2--------------|
E|-----7-----------7-----5-----3--------3----2------0---------0--------------|
3
e|-----2----3---------0----5-------------------------------------------------|
B|-----2----3---------2----2-------------------------------------------------|
G|-----2----4---------3----3-------------------------------------------------|
D|-----4----5---x4----4----0-------------------------------------------------|
A|-----4----5---------4----4-------------------------------------------------|
E|-----2----3---------0----0-------------------------------------------------|

[Chorus]
e|-----7-----------7-----5-----3--------3----2------0---------0--------------|
B|-----7-----------7-----5-----3--------3----2------0---------0--------------|
G|-----7-----------7-----6-----4--------4----2------0---------0--------------|
D|-----9---x4------9-----7-----5--x4----5----4------2---x4----2--------------|
A|-----9-----------9-----7-----5--------5----4------2---------2--------------|
E|-----7-----------7-----5-----3--------3----2------0---------0--------------|
3
e|-----2----3---------0----5-------------------------------------------------|
B|-----2----3---------2----2-------------------------------------------------|
G|-----2----4---------3----3-------------------------------------------------|
D|-----4----5---x4----4----0-------------------------------------------------|
A|-----4----5---------4----4-------------------------------------------------|
E|-----2----3---------0----0-------------------------------------------------|

[Outro]
e|-----7-----------7-----5-----3--------3----2------0---------0--------------|
B|-----7-----------7-----5-----3--------3----2------0---------0--------------|
G|-----7-----------7-----6-----4--------4----2------0---------0--------------|
D|-----9---x4------9-----7-----5--x4----5----4------2---x4----2--------------|
A|-----9-----------9-----7-----5--------5----4------2---------2--------------|
E|-----7-----------7-----5-----3--------3----2------0---------0--------------|

e|-----2----3---------0----5-------------------------------------------------|
B|-----2----3---------2----2-------------------------------------------------|
G|-----2----4---------3----3-------------------------------------------------|
D|-----4----5---x4----4----0-------------------------------------------------|
A|-----4----5---------4----4-------------------------------------------------|
E|-----2----3---------0----0-------------------------------------------------|

************************************

| x  Dead note

************************************
            

* All the chords provided on here are the property of the respective artist, authors and labels, they are intended strictly for educational purposes,read,view and private study. All the contents are extracted from the internet and we are not getting any responsibility for the content.