Porque


Transposer


             Bolchevique Records
Presenta:
A un superPOWERtrio
 
INTRO:
e|----------|
B|----------|
G|-3--2--1--| >
D|----------|
A|----------|
E|----------|

  Bb5-A5-Em     Bb5 - A5 - Em        
e|----------0------------------0---|----------0----------------------|
B|-----------0------------------0--|-----------0---------------------|
G|-(7)(6)-0---0-7-77-6-66-0-00~--0-|-(7)(6)-0---0-7-77-6-66-0-00~----|
D|--8--7--2-----8-88-7-77-2-22-----|--8--7--2-----8-88-7-77-2-22-----|
A|--8--7--2-----8-88-7-77-2-22-----|--8--7--2-----8-88-7-77-2-22-----|
E|--6--5--0-----6-66-5-55-0-00-----|--6--5--0-----6-66-5-55-0-00-----|

  Bb5 A5        Em   
Porque  tanto temor
    Bb5 A5      Em
Para  dar tu corazón
     Bb5 A5          Em
Porque  tantas caras falsas
    Bb5 A5           Em
Antes de  mostrar tu cara.

 Bb5 - A5 - Em

Pero va a venir el lobo
Soplará y soplará
Y tu casita de paja
En el suelo
Quedará.

      C5       A5
Por no dar tu valor
      C5         A5
Por temerle al dolor
      D5          C5
Por creerte de verdad
    Bb5        A5   Em 
Esta   realidad virtual.

Solo>>>>

Donde está tu valor
En el precio de tus marcas
Las que adornan tu casa
Esa casita de paja.
Por no usar tu valor
Por temerle al dolor
Por creerte de verdad
Esta realidad virtual.

FIN:
e|-----------|----------||
B|-----------|----------||
G|-3--2--1~--|-3--2-----|| >
D|-----------|-------2--||
A|-----------|----------||
E|-----------|----------
            

* All the chords provided on here are the property of the respective artist, authors and labels, they are intended strictly for educational purposes,read,view and private study. All the contents are extracted from the internet and we are not getting any responsibility for the content.