Poupee De Cire


Transposer


             Poupee de cire Wizo (France Gall Cover)

Intro

1. Strophe

Em
Je suis une poupee de cire 
C              G
Une poupee de son 
F                         Em
Mon coeur est grave dans mes chansons 
           Fis    Ais     B
Poupee de cire poupee de son

Em
Suis-je meilleure suis-je pire 
C                   G
Qu'une poupee de salon 
F                    Em
Je vois la vie en rose bonbon 
           Fis     B      Em
Poupee de cire poupee de son


Refrain

G                 C    Em   
Mes disques sont un miroir 
        G       B           Em
Dans lequel chacun peut me voir 
G                C     Em
Je suis partout a la fois 
     G           B          Em
Brisee en mille eclats de voix


2.Strophe

Em
Autour de moi j'entends rire 
C                   G
Les poupees de chiffon 
F                             Em
Celles qui dansent sur mes chansons 
           Fis      Ais   B
Poupee de cire poupee de son

Em
Elles se laissent seduire 
C                    G
Pour un oui pour un nom 
F                           Em     
L'amour n'est pas que dans les chansons 
           Fis     B      Em
Poupee de cire poupee de son


Refrain

G                 C    Em
Mes disques sont un miroir 
        G       B           Em
Dans lequel chacun peut me voir 
G                C     Em
Je suis partout a la fois 
     G           B          Em
Brisee en mille eclats de voix


Solo


Refrain

G                 C    Em    
Mes disques sont un miroir 
        G       B           Em
Dans lequel chacun peut me voir 
G                C     Em
Je suis partout a la fois 
     G           B          Em
Brisee en mille eclats de voix


3. Strophe

Em
Seule parfois je soupire 
C                 G
Je me dis a quoi bon 
F                       Em
Chanter ainsi l'amour sans raison 
               Fis  Ais     B
Sans rien connaitre des garcons


Em
Je suis qu'une poupee de cire 
C                 G
Qu'une poupee de son 
F                        Em
Sous le soleil de mes cheveux blonds 
           Fis     B      Em
Poupee de cire poupee de son


Outro

F                       Em
Mais un jour je vivrai mes chansons 
           Fis     B      Em
Poupee de cire poupee de son 
F                           Em
Sans craindre a la chaleur des garcons 
           Fis     B      Em
Poupee de cire poupee de son.



Struktur:

Intro
1. Strophe
Refrain
2.Strophe
Refrain
Solo
Refrain
3. Strophe
Outro

Alle Akkorde können wie sie dastehen gespielt werden, sollten aber in Powerchords gespielt werden, 
weil sonst die schnelleren Wechsel komisch klingen (und es nicht mehr nach Wizo klingt...)

Intro:

e----------------------------------------------------------------|
h-8-0-8-0-7-0-5-0-3-0-1-0-0-1-1-0-0-1-1-0-0-1-1-0-0-10-0-8-0-7-0-|
G----------------------------------------------------------------|
D----------------------------------------------------------------|
A----------------------------------------------------------------|
E----------------------------------------------------------------|

Solo:
(Das Solo ist prinzipiell nur die Melodie nachgespielt und ein bisschen verändert, 
ich habe hier nur die Melodie rausgeschrieben, das kann jeder für sich dann noch solieren)

e-------------------------------------------------------|
h-8-8-7-5---------5-5-----------------5-8-5787-7--------|
G---------7-5-4-4-----7--4------45-4-4-----------66-4---|
D----------------------57----7-7----7-------------------|
A-------------------------------------------------------|
E-------------------------------------------------------|


e-------------------------------------------------------|
h-8-8-7-5---------5-5-----------------5-8-5787-7----5---|
G---------7-5-4-4-----7--4------45-4-4-----------88-----|
D----------------------57----7-7----7-------------------|
A-------------------------------------------------------|
E-------------------------------------------------------|

Vielen Dank an Wizo für dieses geile Cover, ihr seid die Besten!
            

* All the chords provided on here are the property of the respective artist, authors and labels, they are intended strictly for educational purposes,read,view and private study. All the contents are extracted from the internet and we are not getting any responsibility for the content.