Primavera


Transposer


             [Intro]

e|----------------------------------|
B|-5-7-8-5-8-7-4-5-0-8-10-12--------|
G|----------------------------------|
D|----------------------------------|
A|----------------------------------|
E|----------------------------------|

e|-------------------12-10-12-10-8--|
B|-8-12-10-8-10-12-12---------------|
G|----------------------------------|
D|----------------------------------|
A|----------------------------------|
E|----------------------------------|

e|-7-5-0-8-5-7-0-7-5-3-0------------|
B|----------------------------------|
G|----------------------------------|
D|----------------------------------|
A|----------------------------------|
E|----------------------------------|



Em
Es un ángel que va cabalgando
     G                  Em
Cabalgando con brío y valor
       Am                  Em
Va cantando las tristes historias
        G                 Em
De una guerra que ya terminó

Primavera lejos de mi Patria
     G                Em
Primavera lejos de mi amor
     Am                    Em
Primavera sin flores y sin risas
     G                     Em
Primavera; Guerra en el Wolchow

Y sus aguas que van al Ladoga
       G                   Em
Van cantando esta triste canción

        Am                  Em
Canción triste de amor y de guerra
        G                   Em
Canción triste de guerra y amor

Cuando ebrio, avanza el enemigo
   G                       Em
Atacando con vodka y sin valor
         Am                        Em
Rasga el aire, mas fuerte que la metralla
      B7                    Em
Las estrofas de mi "Cara al sol"

"Cara al sol", canción antigua y nueva
         G                  Em
"Cara al sol", es el himno mejor
         Am               Em
"Cara al sol" y morir peleando
       B7                   Em
Que mi Patria así me lo pidió

Si en la lucha yo quedara roto
      G                     Em
Marcharía en la Legión de Honor
     Am                      Em
Montaría la "guardia de los luceros"
     B7             Em
Formaría junto al mejor
     Am                       Em
Montaría la "guardia de los luceros"
     B7              Em
Formaría junto al mejor



[Outro]  Em  Am  Em  B7  Em
            

* All the chords provided on here are the property of the respective artist, authors and labels, they are intended strictly for educational purposes,read,view and private study. All the contents are extracted from the internet and we are not getting any responsibility for the content.