Rip Audio


Transposer


             [Intro]
e|---------------------|------------------|
B|---------------------|------------------|
G|---------------------|------------------|
D|---------------------|------------------|
A|-----------0-0--2-2--|------------0--2--|
E|-2-2--0-0------------|--2-2--0-0--------|

[Verse 1]
        F#             E
Es war alles nur ein Traum
            A                 H
ein kurzer Blitz in Zeit und Raum
              F#         E
und ich weis heute noch genau
         A       H
wie es begann
             F#          E
mein Vater legte Lennon auf
             A          H
sah Michael Jackson im Tv
               F#         E
und hing mir jedes Bravo Poster
        A        H
an die Wand
             F#m           E
dann kamen Handrix Jhonny Cash
          A                Hm
Sting Bob Marley und the Clash
         F#m          E
mir den Walkman wegzunehmen
      A          Hm
keine Chance
              F#m          E
ab jetzt war Lemmy meine Bibel
          A               Hm
ich übte Posen vor dem Spiegel
               F#m
und sang im schlechten Englisch
  E             A
lauthals ihre Songs
       Hm
RIP AUDIO

[Chorus]
F#m        D            A    E
ich denke oft an diese Zeit
F#m        D            A    E
Musik war mehr als nur Dateien
      F#m              D
meine Welt war eine Scheibe
      A          E
aus Venyl statt mp3
           C#                 D
und die Plattenkiste meine Loreley

[RIP AUDIO]
F#m        D            A    E
Ich denke oft an diese Zeit
F#m        D            A    E
heut läuft Musik nur nebenbei
F#m             D
täglich neue Helden
     A                 E
die Idole nicht die selben
          C#
und wir tanzen auf dem Staub
          D
unserer Helden

RIP AUDIO

  F#m    E     A    Hm
e|----------------------------------|
B|----------------------------------|
G|----------------------------------|
D|----4--2--------------------------|
A|----------4--2--4--2--0-----------|
E|-2-----------------------2--0--2--|

F#m        E              A
  und wir tanzen auf dem Staub
          Hm
unserer Helden

 F#m    E     A    Hm
e|----------------------------------|
B|----------------------------------|
G|----------------------------------|
D|----4--2--------------------------|
A|----------4--2--4--2--0-----------|
E|-2-----------------------2--0--2--|

 F#m     E        A    Hm
e|------------------------|
B|------------------------|
G|------------------------|
D|------------------------|
A|-4--2--0--------0-------|
E|----------2--0----------|

[Verse 2]
   F#m               E
Es kam wie's kommen muss
           A            Hm
die erste Liebe wurde Sucht
            F#m          E
und es gab nur die Ärtze Hosen
      A     Hm
oder Flax
           F#m        E
saß stundenlang vor Mtv
        A       Hm
für ne Videokopie
        F#m            E
meiner neuen Lieblingsbands
    A       Hm
auf Vhs
         F#m               E
wenn die Freunde gern was hätten
       A            Hm
überspielten wir Kasetten
      F#m              E
oder teilten uns die Kopfhörer
    A       Hm
im Bus
           F#m            E
der erste Blick november rain
           A                Hm
der erste Blues zu wind of change
               F#m            E
und boys don´t cry bescherte mir
            A
den ersten Kuss
      Hm
RIP AUDIO

[Chorus]
F#m        D            A    E
Ich denke oft an diese Zeit
F#m        D            A    E
Musik war mehr als nur Dateien
      F#m              D
meine Welt war eine Scheibe
      A          E
aus Venyl statt mp3
           C#                 D
und die Plattenkiste meine Loreley

[RIP AUDIO]
F#m        D            A    E
Ich denke oft an diese Zeit
F#m        D            A    E
heut läuft Musik nur nebenbei
F#m             D
täglich neue Helden
     A                 E
die Idole nicht die selben
          C#
und wir tanzen auf dem Staub
          D
unserer Helden

RIP AUDIO
  F#m    E     A    Hm
e|----------------------------------|
B|----------------------------------|
G|----------------------------------|
D|----4--2--------------------------|
A|----------4--2--4--2--0-----------|
E|-2-----------------------2--0--2--|

F#m        E              A
  und wir tanzen auf dem Staub
          Hm
unserer Helden

 F#m    E     A    Hm
e|----------------------------------|
B|----------------------------------|
G|----------------------------------|
D|----4--2--------------------------|
A|----------4--2--4--2--0-----------|
E|-2-----------------------2--0--2--|

 F#m     E        A    Hm
e|------------------------|
B|------------------------|
G|------------------------|
D|------------------------|
A|-4--2--0--------0-------|
E|----------2--0----------|

[Bridge]
F#m     D             A      E
neues kommt und altes geht
F#m           D             A         E
schon oft hat sich der Wind gedreht
F#m             D
aus Marley und Cobain wurde
 A            E
call him mr Wayne
           C#
doch sie leben noch auf Spotify
    D
am See

[Chorus]
F#m        D            A    E
Ich denke oft an diese Zeit
F#m        D            A    E
Musik war mehr als nur Dateien
      F#m              D
meine Welt war eine Scheibe
      A          E
aus Venyl statt mp3
           C#                 D
und die Plattenkiste meine Loreley

[RIP AUDIO]
F#m        D            A    E
Ich denke oft an diese Zeit
F#m        D            A    E
heut läuft Musik nur nebenbei
F#m             D
täglich neue Helden
     A                 E
die Idole nicht die selben
          C#
und wir tanzen auf dem Staub
          D
unserer Helden

[RIP AUDIO]
  F#m    E     A    Hm
e|----------------------------------|
B|----------------------------------|
G|----------------------------------|
D|----4--2--------------------------|
A|----------4--2--4--2--0-----------|
E|-2-----------------------2--0--2--|

F#m        E              A
  und wir tanzen auf dem Staub
          Hm
unserer Helden

 F#m    E     A    Hm
e|----------------------------------|
B|----------------------------------|
G|----------------------------------|
D|----4--2--------------------------|
A|----------4--2--4--2--0-----------|
E|-2-----------------------2--0--2--|

 F#m     E        A    Hm
e|------------------------|
B|------------------------|
G|------------------------|
D|------------------------|
A|-4--2--0--------0-------|
E|----------2--0----------|

F#m
            

* All the chords provided on here are the property of the respective artist, authors and labels, they are intended strictly for educational purposes,read,view and private study. All the contents are extracted from the internet and we are not getting any responsibility for the content.