Roll Me On Home


Transposer


             Ken Yates
Roll Me On Home
Capo 3
Standard

    C   Cmaj9/B  Cadd2/G  Fmaj7/C   Fsus2/C  G   Am7  D5/A
e|--0---0--------0--------0---------0--------X---0----X--------|
B|--1---1--------1--------1---------1--------0---1----3--------|
G|--0---0--------0--------2---------0--------0---0----2--------|
D|--2---0--------0--------3---------3--------0---2----0--------|
A|--3---2--------3--------3---------3--------2---0----0--------|
E|--X---X--------3--------X---------0--------3---0----X--------|

[Intro]
C   Cmaj9/B   Cadd2/G   Fsus2/C
C   Cmaj9/B   Cadd2/G   Fmaj7/C

[Verse]
      C         Cmaj9/B     Cadd2/G      Fsus2/C
Well, I’ve been looking for somewhere to go
C           Cmaj9/B       Cadd2/G  Fmaj7/C
You’ve been looking for a place to roam
C         Cmaj9/B  Cadd2/G    Fsus2/C
You got a heart to wild to be free
    C           Cmaj9/B   Cadd2/G     Fmaj7/C
And I just need someone to hold on to me

G                                    Fsus2/C
  We ain’t the stuff that they write fairytales about
G                           Fsus2/C
  Neither of us have really figured it out

            C
But I’ll be steady in your hand
       Fsus2/C
If you take me as I am
             Am7          G          C
I’ll be your rock, if you roll me on home
           C
And I will tame your restless heart
            Fsus2/C
If you give me a brand new start
             Am7          G          C
I’ll be your rock, if you roll me on home

[Hook]
C   Cmaj9/B   Cadd2/G   Fsus2/C
C   Cmaj9/B   Cadd2/G   Fmaj7/C

[Verse]
      C       Cmaj9/B      Cadd2/G   Fsus2/C
We’ll build a house out of broken dreams
      C          Cmaj9/B    Cadd2/G  Fmaj7/C
We’ll find a way back to reality
C      Cmaj9/B       Cadd2/G    Fsus2/C
Nobody says that you can’t find love
    C         Cmaj9/B        Cadd2/G   Fmaj7
If love ain’t around to come pick you up

G                                  Fsus2/C
  I won’t be the one that you can count on to be safe
G                                     Fsus2/C
  But I'll get lost with you when you lose your way

[Chorus]
        C
I’ll be steady in your hand
       Fsus2/C
If you take me as I am
             Am7          G          C
I’ll be your rock, if you roll me on home
           C
And I will tame your restless heart
            Fsus2/C
If you give me a brand new start
             Am7          G          C
I’ll be your rock, if you roll me on home

[Bridge]
D5/A
Cause I’m tired
Fsus2/C
Of being alone

[Solo]
C   Cmaj9/B   Cadd2/G   Fsus2/C
C   Cmaj9/B   Cadd2/G   Fmaj7/C

G                           Fsus2/C
  I’m not expecting you to carry that load
                        (find my golden road) Alt Lyric
G                             Fsus2/C
  I just need something I can call my own

[Chorus]
        C
I’ll be steady in your hand
       Fsus2/C
If you take me as I am
             Am7          G          C
I’ll be your rock, if you roll me on home
           C
And I will tame your restless heart
            Fsus2/C
If you give me a brand new start
             Am7          G          C
I’ll be your rock, if you roll me on home
             Am7          G          Fsus2/C
I’ll be your rock, if you roll me on home
             Am7          G          C
I’ll be your rock, if you roll me on home

(There’s some more pulls and hammers in there, but this is the core of it)

[Main Phrase]
    C     Cmaj9/B   Cadd2/G   Fsus2/C
e|--0-----0---------0---------0--------0---------0-------|
B|--1-----1---------1---------1--------1---------1-------|
G|--0-----0---------0---------0--------0h2-------2h0-----|
D|--0h2---0---------0---------3--------3---------3-------|
A|--3-----2---------3---------3--------3---------3-------|
E|--X-----X---------3---------X--------X---------0-------|

    C     Cmaj9/B   Cadd2/G   Fmaj7/C
e|--0-----0---------0---------0--------0---------0-------|
B|--1-----1---------1---------1--------1---------1-------|
G|--0-----0---------0---------2--------2h0-------0h2-----|
D|--0h2---0---------0---------3--------3---------3-------|
A|--3-----2---------3---------3--------3---------3-------|
E|--X-----X---------3---------X--------X---------0-------|
            

* All the chords provided on here are the property of the respective artist, authors and labels, they are intended strictly for educational purposes,read,view and private study. All the contents are extracted from the internet and we are not getting any responsibility for the content.