Roll Out The Red Carpet


Transposer


             [Intro]

e|-----------------|------------------|
B|----7------------|------7-----------|
G|--8-------6-4-4--|--4-8------6-4-4--| x2
D|-----------------|------------------|
A|-----------------|------------------|
E|-----------------|------------------|

G#5   F#5 E5

[Verse]
G#5                  F#5      E5
Been written off for dead and gone now
G#5                  F#5   E5
Turned your back and drift away
G#5                      F#5      E5
You pave this path you're on with sorrow
G#5                  F#5         E5
Walk around with one foot in the grave, one foot in the grave

[Chorus]
          G#5          C#5
You gotta roll out the red carpet
B5
There's a dead man coming on in
G#5          C#5     B5
Roll out the red carpet
          G#5          C#5
You gotta roll out the red carpet
B5
An empty soul and a bottle of gin
G#5          C#5     B5
Roll out the red carpet

G#5   F#5 E5 x2

[Verse]
G#5               F#5  E5
Your demise is intoxicating
G#5                   F#5       E5
But all your troubles will soon be history
G#5             F#5        E5
The undertakers they stand waiting, waiting
G#5                   F#5      E5
This was the life you chose to lead, you chose to lead

[Chorus]
          G#5          C#5
You gotta roll out the red carpet
B5
There's a dead man coming on in
G#5          C#5     B5
Roll out the red carpet
          G#5          C#5
You gotta roll out the red carpet
B5
An empty soul and a bottle of gin
G#5          C#5     B5
Roll out the red carpet

[Interlude]

E5 G#5 E5 F#5 x2

F#5 E5 B5 F#5 x4

G#5   F#5 E5 x2

[Verse]
G#5             F#5  E5
Your final days are upon you
G#5                   F#5    E5
And you shall soon be buried deep
G#5                    F#5  E5
You rambled this world as a stranger, stranger
G#5               F#5  E5
Of you nobody has a memory, no memory

[Outro]

    G#5     F#5 E5      G#5     F#5 E5     G#5     F#5 E5      G#5    F#5 E5
e|-----------------|------------------|-------------------|------------------------|
B|----7------------|------7-----------|------7------------|------7-----------------|
G|--8-------6-4-4--|--4-8------6-4-4--|--4-8-------6-4-4--|--4-8------6-4-4--3--1--|
D|-----------------|------------------|-------------------|------------------------|
A|-----------------|------------------|-------------------|------------------------|
E|-----------------|------------------|-------------------|------------------------|
            

* All the chords provided on here are the property of the respective artist, authors and labels, they are intended strictly for educational purposes,read,view and private study. All the contents are extracted from the internet and we are not getting any responsibility for the content.