Salmo 145


Transposer


             Intro ( Bb, C, Dm X4)

e-----------------5---------------------|
B--------5--6--8------8--6--5--6--------|
G--5--7---------------------------7-----|

e---------------10s13----^15^15s13------|
B--5--6--8--10----------------------15--|
G---------------------------------------|

e-------------10----10-------------------|
B----6--8s10-----10----8--6--5h6-5h6-5h6-|
G--7-------------------------------------|


Estrofa

      F             C           Dm  F   Dm  F
Cada generacion celebrara tus obras
       F             C                     Dm  F   Dm  F
se hablara del esplendor de tu gloria y majestad
       F             C                  Dm  F   Dm  F
se proclamara la memoria de tu inmensa bondad
       F           C          F          C           A
se cantara con jubilo se cantara con jubilo tu victoria


Coro
               Bb      C           Dm
Te exaltare mi Dios y rey por siempre
           Bb     C       Dm
todos los dias te bendecire
                Bb    C            Dm
te exaltare mi Dios y rey por siempre
Bb     A    Dm
grande eres tu


Bueno todo es en cejilla
alguna duda me la mandan [email protected]
            

* All the chords provided on here are the property of the respective artist, authors and labels, they are intended strictly for educational purposes,read,view and private study. All the contents are extracted from the internet and we are not getting any responsibility for the content.