Same Soul


Transposer


             Ending may be off, please leave a comment if you have a suggestion to change it!


This tab can be played throughout the whole song:

e|---2----|--------|-----5---|---2----|--------|-----5---|
B|-----3--|---3----|-------7-|-----3--|---3----|-------7-|
G|--------|-----4--|---------|--------|-----4--|---------|
D|--------|--------|---------|--------|--------|---------|
A|--------|--------|---------|--------|--------|---------|
E|-3------|-0------|-5/7-----|-3------|-0------|-5/7-----|

[Verse 1]
G               Em      Bm
Where does your body go when I leave you alone?
G                Em        Bm
Would your heart know if I met you in a brand new set of bones?
G              Em        Bm
'Cause you may see me in different bodies
G      Em    Bm
Hiding below with the same soul

[Pre-Chorus]
  G                        Em
I could have walked by you a thousand times
Bm
Different places, different lives
G                         Em
I could have been someone you don't recognize
Bm
Different figure, new design

[Chorus]
G Em Bm
     I'm just a body that you used to know
G Em Bm
     I'm just somebody that you used to know
G Em Bm
     I'm just a body that you used to know
G Em Bm
     Used to know, used to know, used to know

Chorus Tab:
e|----------------------------------------|
B|-5/7-7-7-7--3/5-5-5-5--3/5-5-5-5—-3-----| hold the last
G|-6/7-7-7-7--4/6-6-6-6--4/6-6-6-6—-4-----| two notes.
D|----------------------------------------|
A|----------------------------------------|
E|----------------------------------------| x3

Last time play:
e|--------------------------------------------|
B|-5/7-7-7-7--3/5-5-5-5--3/5-5-5-5--5/3-3-3-3-|
G|-6/7-7-7-7--4/6-6-6-6--4/6-6-6-6--6/4-4-4-4-|
D|--------------------------------------------|
A|--------------------------------------------|
E|--------------------------------------------|

[Verse 2]
G              Em         Bm
Where did your heart stay in all those years away?
G               Em
Did I make your body shake?
Bm
Could you feel me riding through the airwaves?
G            Em         Bm              G      Em
In all those yesterdays were you always hiding below?
Bm
No, I didn't know

[Pre-Chorus]
              G
I think we've loved a thousand lives
Em            Bm
I try to find you every time
              G
Searching for those same wide eyes
Em                 Bm
That locked me in, in my first life
G
Do you remember my old names?
Em           Bm
Recognize my other face?
G
We're both hanging in picture frames
Em
Somewhere in this place
Bm
But my stare at you stayed the same

[Chorus]
G Em Bm
     I'm just a body that you used to know
G Em Bm
     I'm just somebody that you used to know
G Em Bm
     I'm just a body that you used to know
G Em Bm
     Used to know, used to know, used to know

Chorus Tab:
e|----------------------------------------|
B|-5/7-7-7-7--3/5-5-5-5--3/5-5-5-5—-3-----| hold the last
G|-6/7-7-7-7--4/6-6-6-6--4/6-6-6-6—-4-----| two notes.
D|----------------------------------------|
A|----------------------------------------|
E|----------------------------------------| x3

Last time play:
e|--------------------------------------------|
B|-5/7-7-7-7--3/5-5-5-5--3/5-5-5-5--5/3-3-3-3-|
G|-6/7-7-7-7--4/6-6-6-6--4/6-6-6-6--6/4-4-4-4-|
D|--------------------------------------------|
A|--------------------------------------------|
E|--------------------------------------------|

[Instrumental]
G Bm A x2

[Bridge]
( Bm )            G                Bm          A
    I think we've loved a thousand lives (vocalization)
                   G     Bm                            A
    I try to find you every time (I try to find you every time)
( Bm )                  G       Bm
    I think we've loved a thousand lives
                    A                   ( Bm )
I try to find you every time

[Instrumental 2]
e|--------------------------------------------|
B|-5/7-7-7-7--3/5-5-5-5--3/5-5-5-5--5/3-3-3-3-|
G|-6/7-7-7-7--4/6-6-6-6--4/6-6-6-6--6/4-4-4-4-|
D|--------------------------------------------|
A|--------------------------------------------|
E|--------------------------------------------|

G Em Bm
     I'm just a body that you used to know
G Em Bm
     I'm just somebody that you used to know
G Em Bm
     Used to know, used to know, used to know

[Chorus]

(I think we've lived a thousand lives)

G Em Bm
     I'm just a body that you used to know

(I try to find you everytime)

G Em Bm
     I'm just a body that you used to know
(I try to find you everytime)

G Em Bm
     I'm just somebody that you used to know

G Em Bm
     Used to know, used to know, used to know

Chorus Tab:
e|----------------------------------------|
B|-5/7-7-7-7--3/5-5-5-5--3/5-5-5-5—-3-----| hold the last
G|-6/7-7-7-7--4/6-6-6-6--4/6-6-6-6—-4-----| two notes.
D|----------------------------------------|
A|----------------------------------------|
E|----------------------------------------| x3

Last time play:
e|--------------------------------------------|
B|-5/7-7-7-7--3/5-5-5-5--3/5-5-5-5--5/3-3-3-3-|
G|-6/7-7-7-7--4/6-6-6-6--4/6-6-6-6--6/4-4-4-4-|
D|--------------------------------------------|
A|--------------------------------------------|
E|--------------------------------------------|

[Ending]
For the fade out, end with:
e|---2----|--------|-----5---|
B|-----3--|---3----|-------7-|
G|--------|-----4--|---------|
D|--------|--------|---------|
A|--------|--------|---------|
E|-3------|-0------|-5/7-----|


********************

| /  Slide up

********************
            

* All the chords provided on here are the property of the respective artist, authors and labels, they are intended strictly for educational purposes,read,view and private study. All the contents are extracted from the internet and we are not getting any responsibility for the content.