Schön Kaputt


Transposer


             Sondaschule - Schön Kaputt
tabbed by JuWu from SI

Intro

Asus2    E/A       2x

E|--0------0--
H|--0------0--
G|--2------1--
D|--2------2--
A|--0------0--
E|------------


Asus2                        E/A                Asus2           E/A
Die Zeit malt Narben auf die Haut
D
von der Autobahn längst taub
Asus2                     E/A              Asus2           E/A
Grauer Himmel, Schwarzer Rauch
D
wir atmen ein, wir atmen aus
E                     Asus2                E/A           Asus2        
        und alles ist gut,                      alles ist gut


E                            Asus2            H5
Denn in den Straßen zwischen Kohle, Dreck und Schrott
                           D5
glauben wir allen Stadt an einen echten Gott
                           Asus2        H5
wir passen nicht in deinen Mode-Fashion-Blog
              D5           E5
doch wir sind wunderschön, wunderschön
              Asus2       H5
Hier bröckelt überall der Putz
                       D5
bei uns fährt schon um 11 der Letzte Bus
                   Asus2              H5
doch unter all dem Berg aus Dreck und Schmutz
            D5            E5
sind wir so wunderschön, wunderschön kaputt


Intro           Asus2           E/A   2x 


Asus2                        E/A                Asus2           E/A
Das Ambiente schlecht lackiert
D   (wechsel auf G-Saite (2 auf 1) kann auch gespielt werden)
der Horizont zuzementiert
Asus2                        E/A                Asus2           E/A
doch ganz egal wohin ich komm
D                               
ich kratz ein Herz in den Beton

Ref

Zwischenspiel     Asus2 H D D | Asus2 H D E    2x (Melodie siehe Tab)
                  (schön kaputt, schön kaputt ...)

                  nach Melodie Asus2 E/A  2x


Ref

Outro = Intro

_____________________________________________________________________

Erster Durchgang

E|-12-----------------12-----------------12--------------------------|
H|-----10--12-------------10--12-------------10--12--10------10------|
G|-----------------9--------------11---------------------9-----------|
D|-------------------------------------------------------------------|
A|-------------------------------------------------------------------|
E|-------------------------------------------------------------------|

zweiter Durchgang

E|-12-----------------12-----------------12---------------------------|
H|-----10--12-------------10--12-------------10--12--12--10----9---10-|
G|-----------------9--------------11----------------------------------|
D|--------------------------------------------------------------------|
A|--------------------------------------------------------------------|
E|--------------------------------------------------------------------|
            

* All the chords provided on here are the property of the respective artist, authors and labels, they are intended strictly for educational purposes,read,view and private study. All the contents are extracted from the internet and we are not getting any responsibility for the content.