Si Escucharas El Silencio


Transposer


             INTRO

E|-------------5-4--2/4/2-0--------0-|
B|---------5----------------------0--|
G|-2---2/4-6------------------1/2----|
D|---2/4-------0-------------2-------|
A|-0-------4-------------------------|
E|------------------------0----------|

E|----------------------0------------|---|
B|---------5-------5-7------0--------|-2-|
G|-2---2/4-6--4--7---7-----------2/4-|-2-|
D|---2/4------4--7------------2/4----|---|
A|-0-------4-----5-------------------|-0-|
E|----------------------0------------|---|


A               C#m
Hoy después de un tiempo
D            E
He vuelto a pensar
A               C#m
Si decirte lo que siento,
D            E
Al verte llegar.


A               C#m
Es que es tan grande el sentimiento
D            E
Que me ahoga al mismo tiempo
A               C#m
Y me da miedo, mucho miedo
D            E
Volver a fracasar.


A                  C#m         D       E
Si entendieras el idioma del silencio
A               C#m
Donde una mirada dice
D            E
Más que las palabras
A                  C#m         D       E
Si supieras que te pienso a cada instante
A                     C#m
Comprendieras que te quiero y me da
D            E
Miedo acercarme...

... me da miedo acercarme.


A               C#m
Y pienso si que pienso
D            E
Intentarlo de nuevo
A               C#m
Y me da vuelta en la cabeza,
D            E
El sutil recuerdo

A               C#m   D            E
De los cuerpos abrazados en la noche
A               C#m
Compartiendo juntos
D            E
El idioma del silencio


A               C#m
Caminar bajo la lluvia,
D            E
Sin hablar me di cuenta
A               C#m
Que un beso y un  abrazo
D            E
Llevan palabras en las manos


A                  C#m         D       E
Si entendieras el idioma del silencio
A               C#m
Donde una mirada dice
D            E
Más que las palabras
A                  C#m         D       E
Si supieras que te pienso a cada instante
A               C#m
Comprendieras que te quiero y me da
D            E
Miedo acercarme... (x 2)
            

* All the chords provided on here are the property of the respective artist, authors and labels, they are intended strictly for educational purposes,read,view and private study. All the contents are extracted from the internet and we are not getting any responsibility for the content.