Simples Desejo


Transposer


             Simples Desejo
Thiaguinho
Cifra: Principal (violão e guitarra)
Tom: F
Intro 2x: C7+ Eb  F

B|----------------6/8-8-6-6-5---5h6-5----|
G|---------5-7-7/9------------5----------|
D|-5h7h5h7-------------------------------|
A|---------------------------------------|
E|---------------------------------------|

G|-----8-8-5--8-8--|
D|-5-8-------8-----|
A|-----------------|
E|-----------------|

B|---6/8-8-6-6-5------------|
G|---------------5-5/9------|
D|--------------------------|
A|--------------------------|

RIFF JUNTO COM A INTRO

    C7+
Que tal
Eb        F        C7+
 Abrir a porta do dia
Eb            F       C7+
 Entrar sem pedir licença
Eb       F          C7+
 Sem parar pra pensar
            Eb   F
 Pensar em nada...
   C7+
Legal
Eb          F       C7+
 Ficar sorrindo à toa  toa
Eb             F          C7+
 Sorrir pra qualquer pessoa
Eb           F        C7+  Eb  F
 Andar sem rumo na rua
C7+
Pra viver e pra ver
    Eb          F
Não é preciso muito  não

C7+
Atenção  a lição
Eb             F
Está em cada gesto
C7+
Tá no mar  tá no ar
     Eb             F
No brilho dos seus olhos
C7+
Eu não quero tudo de uma vez
Eb                F
 Eu só tenho um simples desejo
C7+                      Eb           F
 Hoje eu só quero que o dia termine bem
C7+                      Eb           F
 Hoje eu só quero que o dia termine bem
            

* All the chords provided on here are the property of the respective artist, authors and labels, they are intended strictly for educational purposes,read,view and private study. All the contents are extracted from the internet and we are not getting any responsibility for the content.