Spiders


Transposer


             -------------------------------------------------------------------------------
                         Spiders - The General And Duchess Collins
-------------------------------------------------------------------------------
http://www.generalandduchesscollins.com/
Tabbed by: Erik Koene
Email: [email protected]

Tuning: Standard tuning

For the intro and the first verse of the song:

    Dm          Dsus2
e|--------1-----------0------|
B|------3---3-------3---3----|
G|----2-------2---2-------2--|
D|--0-----------0-----------0| repeat till 1:02
A|---------------------------|
E|---------------------------|


Then at 1:02 [the piano part, alternatively just play the chords]
    Dm          G           F           G
e|--------1-----------3-----------1-----------3------|
B|------3---3-------0---0-------1---1-------0---0----|
G|----2-------2---0-------0---2-------2---0-------0--|
D|--0-----------0-----------3-----------0-----------0| repeat till end
A|---------------------------------------------------|
E|---------------------------------------------------|

At some points there's no guitar, just piano. Those things were pointless to transcribe. 
can just play the Dm - G - F - G at those points.
Good luck at this great song!
            

* All the chords provided on here are the property of the respective artist, authors and labels, they are intended strictly for educational purposes,read,view and private study. All the contents are extracted from the internet and we are not getting any responsibility for the content.