Stay And Play


Transposer


             La chanson de Rock Macabre composée par Pv Nova!
Remarque: la version originale est jouée CAPO 10, cependant le CAPO 2 ou 6 est plus confortable, 
à vous de voir!

Fmaj7: 0123xx

CAPO 10

Arpèges:
   
[Intro]

    Am               C                Fmaj7
e|--------0----------------0----------------0----------------0----------|
B|----1-----1----------1-----1----------1------1---------1-----1--------|
G|--2---2-----2------0---0-----0----------2------2---------2-----2------|  x2
D|------------------------------------3----------------3----------------| 
A|----------------------------------------------------------------------|
E|----------------------------------------------------------------------|


[Verse 1]

    Am               C                Fmaj7
e|-------0----------------0----------------0----------------0----------|
B|----1----1-----------1----1----------1------1---------1-----1--------|
G|--2---2----2-------0---0----0----------2------2---------2-----2------|   x4
D|-----------------------------------3----------------3----------------|
A|---------------------------------------------------------------------|
E|---------------------------------------------------------------------|
 
    G                              Fmaj7
e|-------0--------------0----------------0-------------0---------------|
B|----3----3--------3-----3----------1-----1----------1----------------|
G|--0---0----0----0---0-----0----------2-----2-------2-----------------| 
D|---------------------------------3----------------3------------------|
A|---------------------------------------------------------------------|
E|---------------------------------------------------------------------|


[Refrain]

    Am               C                Fmaj7           C
e|-------0----------------0----------------0----------------0----------|
B|----1----1-----------1----1----------1------1---------1-----1--------|
G|--2---2----2-------0---0----0----------2------2-----0---0-----0------| 
D|-----------------------------------3---------------------------------|
A|---------------------------------------------------------------------|
E|---------------------------------------------------------------------|

    Fmaj7            C               G
e|-------0----------------0----------------0----------------0----------|
B|----1----1-----------1----1----------3------3---------3-----3--------|
G|------2----2-------0---0----0------0---0------0-----0---0-----0------| 
D|--3------------------------------------------------------------------|
A|---------------------------------------------------------------------|
E|---------------------------------------------------------------------|

    Am               C                Fmaj7           G       E7
e|-------0----------------0----------------0--------------0-------0----|
B|----1----1-----------1----1----------1------1---------3-------0------|
G|--2---2----2-------0---0----0----------2------2-----0-------1--------| 
D|-----------------------------------3---------------------------------|
A|---------------------------------------------------------------------|
E|---------------------------------------------------------------------|

    Am               C                G
e|-------0----------------0----------------0----------------0----------|
B|----1----1-----------1----1----------3------3---------3-----3--------|
G|--2---2----2-------0---0----0------0---0------0-----0---0-----0------| 
D|---------------------------------------------------------------------|
A|---------------------------------------------------------------------|
E|---------------------------------------------------------------------|


[Verse 2]

    Am               C                Fmaj7
e|-------0----------------0----------------0----------------0----------|
B|----1----1-----------1----1----------1------1---------1-----1--------|
G|--2---2----2-------0---0----0----------2------2---------2-----2------|   x3
D|-----------------------------------3----------------3----------------|
A|---------------------------------------------------------------------|
E|---------------------------------------------------------------------|
 
    G                              Fmaj7
e|-------0--------------0----------------0-------------0---------------|
B|----3----3--------3-----3----------1-----1----------1----------------|
G|--0---0----0----0---0-----0----------2-----2-------2-----------------| 
D|---------------------------------3----------------3------------------|
A|---------------------------------------------------------------------|
E|---------------------------------------------------------------------|


[Intro]

(Acapella)
Hhhhhhhhhhhhhhm...
Hhhhhhhhhhhhhhm...

(Guitare en arpèges)
Am     C     Fmaj7    
Hhhhhhhhhhhhhhm...
Am     C     Fmaj7  
Hhhhhhhhhhhhhhm...


[Verse 1] 
(Arpèges)

          Am                       C
Would you find me somewhere in the shadow?
      Fmaj7
Would stay and wait for tomorrow?
      Am                     C          Fmaj7
I was wrong to believe I was free on my own
         Am                     C
Find the place I thought it was lost
       Fmaj7
It was deep down in the frost
      Am                    C     Fmaj7        
Now I know it's ok, it was onlyyyyyy a ghost

G (x2) - Fmaj7


[Refrain]
(Arpèges)

       Am   C   Fmaj7   C
Please stay and play
         Fmaj7                   C                   G
When you hear it's ok I don't care what everybody say
          Am    C     Fmaj7     G    E7 
Don't you fade aaaaaaway
       Am          
I need you next to me
        C                    G
Side by side back in the old days


[Verse 2] 
(Arpèges)

          Am                       C
Would you find me somewhere in the shadow?
      Fmaj7
Would stay and wait for tomorrow?
      Am                     C          Fmaj7
I was wrong to believe I was free on my own
      Am                 C
I'm afraid I'm a bit too late
        Fmaj7
I don't want to finish what I dread
       G                                    Fmaj7          
It was me on the long looking the sincere


[Refrain] 

       Am   C   Fmaj7   C
Please stay and play
         Fmaj7                   C                   G
When you hear it's ok I don't care what everybody say
          Am    C     Fmaj7     G    E7 
Don't you fade aaaaaaway
       Am          
I need you next to me
        C                    G
Side by side back in the old days

       Am   C   Fmaj7   C
Please stay and play
         Fmaj7                   C                   G
When you hear it's ok I don't care what everybody say
          Am    C     Fmaj7     G    E7 
Don't you fade aaaaaaway
       Am          
I need you next to me
        C                    G
Side by side back in the old days


[Verse 3]

          Am                       C
Would you find me somewhere in the shadow?
      Fmaj7
Would stay and wait for tomorrow?
      Am                     C          Fmaj7
I was wrong to believe I was free on my own
         Am                     C
Find the place I thought it was lost
       Fmaj7
It was deep down in the frost
      Am                    C          Fmaj7        
Now I know it's ok, it was only a ghost


[Refrain]

       Am   C   Fmaj7   C
Please stay and play
         Fmaj7                   C                   G
When you hear it's ok I don't care what everybody say
          Am    C     Fmaj7     G    E7 
Don't you fade aaaaaaway
       Am          
I need you next to me
        C                    G
Side by side back in the old days
            

* All the chords provided on here are the property of the respective artist, authors and labels, they are intended strictly for educational purposes,read,view and private study. All the contents are extracted from the internet and we are not getting any responsibility for the content.