Super Bee


Transposer


             INTRO
-3-3-3-3--1-1--0-0------
-2-2-2-2--1-1--0-0------
-3-3-3-3--1-1--0-0------
------------------------
------------------------
------------------------

    D        Bm        D        Bm
Yo se que tienes lo que quieres de el ,
y que tu corazón le quiere ser fiel.
Pero sus super días han llegado a su fin,
     D      Bm           E      G
por que te aburres cuando sales con el.

C    F-G F-G     C      F-G  F-G    C      F-G   F-G
Serás distinta , cuando me acerque, daremos vueltas en mi
   D        INTRO
super bee.


Y no me importa que me mires así,
por que he hecho planes para hacerme de ti
Super celeste cromo tecno y vinyl
que te estremecen cuando subes en el.

D    Gm    D   Gm     D        Gm    D           Gm
Cuando estemos solos, daremos vuelo a todos nuestros sueños ,
    C         A#        D
nada es imposible junto a ti.

SOLO:
      D    Bm
--------------------------------------1/2-1/2-----10---10--
--------3-3-2--------------3-3-2------2/3-2/3-----10---10--
-----2---------4-2------2--------4-2--1/2-1/2-10H11-10H11--
--/4---------------4-/-4-----------------------------------
-----------------------------------------------------------
-----------------------------------------------------------

C    F-G F-G     C      F-G  F-G    C      F-G   F-G
Serás distinta , cuando me acerque, daremos vueltas en mi
   D        INTRO
super bee.
            

* All the chords provided on here are the property of the respective artist, authors and labels, they are intended strictly for educational purposes,read,view and private study. All the contents are extracted from the internet and we are not getting any responsibility for the content.