Take Me Down


Transposer


             [Intro]
    C                Am                Em                F
e|-----------------|-----------------|-----------------|-----------------|
B|-----------------|-----------------|-----------------|-----------------|
G|-----------------|-----------------|-----------------|-2-2-0-2---------|
D|-2-2-0-2---------|-2-2-0-2---------|-2-2-0-2---------|-3-3-3-3---------|
A|-3-3-3-3---------|-0-0-0-0---------|-2-2-2-2---------|-3-3-3-3---------|
E|-----------------|-----------------|-----------------|-----------------|

   C                 Am      G         C 
e|-----------------|-----------------|-----------------|-----------------|
B|-----------------|-----1-----------|-----------------|-----------------|
G|-----------------|-----2-------0---|-----------------|-----------------|
D|-2-2-0-2---------|-2-2-2-2-----0---|-2-2-0-2-----0-2-|-----0-2---------|
A|-3-3-3-3---------|-0-0-0-0-2-2-2-3-|-2-2-2-2-----3-3-|-----3-3---------|
E|-----------------|---------3-3-3-3-|-----------------|-----------------|


[Verse 1]
C                  Am
 Got my bags packed, rocket chief says
Em                         F                       C
 Guess I'm flying to the moon and back, yes it's true
Am      G                   C
 Always want more time with you


[Verse 2]
C                 Am
 Take me bound, take me tight
Em                         F                   C
 Hold me one more time before this night is through
Am             G                      C
 Thank God I'm more than friends with you


[Chorus]
            C
So take me down, to where it all began
                      Am
And let yourself come over me
                            C
With all the love that you have
         C
Let me know, can we stay just one more day
                           Am
In this moment that we've saved
                           C
So we don't let this time away


[Verse 3]
C               Am
 Took a walk, bird in hand
Em                      F                       C
 Caught your eye with one more glance, then I knew
Am          G            C
 My happiness belongs to you


[Chorus]
            C
So take me down, to where it all began
                      Am
And let yourself come over me
                            C
With all the love that you have
         C
Let me know, can we stay just one more day
                           Am
In this moment that we've saved
                           C
So we don't let this time away


[Bridge]
Em     F              C
   Ooh ooh, just hold on
Em             F               G
   Before the time we have is gone


[Chorus]
            C
So take me down, to where it all began
                      Am
And let yourself come over me
                            C
With all the love that you have
        C
Let me know, can we stay just one more day
                           Am
In this moment that we've saved
                           C
So we don't let this time away

         C
Take me down, to where it all began
                      Am
And let yourself come over me
                            C
With all the love that you have
        C
Let me know, can we stay just one more day
                           Am
In this moment that we've saved
                           C
So we don't let this time away


[Outro]
Am     F              C
   Ooh ooh, just hold on
            

* All the chords provided on here are the property of the respective artist, authors and labels, they are intended strictly for educational purposes,read,view and private study. All the contents are extracted from the internet and we are not getting any responsibility for the content.