Tear Stained Eye


Transposer


             [Verse 1]

D                                   G
Walkin down Main Street, gettin' to know the concrete
             A                   D
Lookin for a purpose from a neon sign.
                                  G
I would meet you anywhere western sun meets the air
             A                   D
I'll hit the road, never lookin' behind.


[Chorus]
                              Em
Can you deny, there's nothin' greater
        G                         D
nothin' more than travelin' hands of time
                                Em
St. Genevieve can hold back the water,
                 A                          D
but saints don't bother with a tear stained eye.


(banjo solo)


[Verse 2]
                     G
Seein' traces of the scars that came before
               A                         D
written in the pavement, still askin' for more

  [Guitar Fill]
e|----------9---------|
B|-12-12-12---12-9----|
G|--------------------|
D|--------------------|
A|-----------------11-|
E|--------------------|
                                          G
when the hours don't move along, worn-out wood and familiar songs
             A                       D
To hear your voice is not enough, is more than a shame.


[Chorus]
                              Em
Can you deny, there's nothin' greater
        G                         D
nothin' more than travelin' hands of time

  [Guitar Fill]
e|------------------------|
B|-12---------------------|
G|----11-9-11-9-11-9------|
D|-------------------11-9-|
A|------------------------|
E|------------------------|
                                Em
St. Genevieve can hold back the water,
                 A                          D
but saints don't bother with a tear stained eye.


  [Solo]
e|------------------------------------------------------------------------------|
B|-----------------9----9------------9-10-9--------------10---------------------|
G|----------8-9-11---11---11-9-9------------11-9-11-9-11------------------------|
D|----9-9-9---------------------------------------------------------------------|
A|------------------------------------------------------------------------------|
E|------------------------------------------------------------------------------|


e|------------------------------------9---------12---------------------------16-|
B|----------------------10-12-12-9-12--------------14-12--------14---14---12----|
G|----------9-9------------------------------------------13---------------------|
D|-10-11-----------9-11-------------------------------------14------------------|
A|------------------------------------------------------------------------------|
E|----------------------------------------12------------------------------------|



[Verse 3]
                      G
Like a man said, rode hard and put away wet
               A                      D
throw away the bad news and put it to rest
                               G
If learnin' is livin', and the truth is a state of mind
         A                                D
you'll find it's better at the end of the line.


[Chorus]
                              Em
Can you deny, there's nothin' greater
        G                         D
nothin' more than travelin' hands of time
                                Em
St. Genevieve can hold back the water,
                 A                          D
but saints don't bother with a tear stained eye.

D Em G D
                                Em
St. Genevieve can hold back the water,
                 A                          D
but saints don't bother with a tear stained eye.
            

* All the chords provided on here are the property of the respective artist, authors and labels, they are intended strictly for educational purposes,read,view and private study. All the contents are extracted from the internet and we are not getting any responsibility for the content.