Thank You


Transposer


             -------------------------------------- THANK YOU - FUTURES --------------------------------------

Tabbed by: slideslidebaby
Email: [email protected]  
Tuning: Standard

Listen for timing!

INTRO:

D                 Bm 
  I will thank you and I will sing.
G
  Until my lungs give out
    F#m          Em      
And I can barely breathe.
D                               Bm                   
  If this is what you want then I will start belief,
G                                 F#m          Em
  Like on the back of a map where you can only dream.


This riff is being played before the first verse:

Chords are: D Bm G F#m Em

e|---------------------------------------------------------------|
B|-7---7---7-5-7---7---7-5-7---7---7-5-7----7-5---5--------------|
G|-7---7---7-7-7---7---7-7-7---7---7-7-7----7-7---7--------------|
D|---------------------------------------------------------------|
A|---------------------------------------------------------------|
E|---------------------------------------------------------------|

e|---------------------------------------------------------------|
B|-7---7---7-5-7---7---7-5-7---7---7-5-7-7-7-7-7-7-7-7-----------|
G|-7---7---7-7-7---7---7-7-7---7---7-7-7-7-7-7-7-7-7-7-----------|
D|-------------------------------------------5-5-5-5-5-----------|
A|---------------------------------------------------------------|
E|---------------------------------------------------------------|

This riff is being played through both verses:

e|---------------------------------------------------------------|
B|---------------------------------------------------------------|
G|---------------------------------------------------------------|
D|-4---4---4-2-4---4---4-2-4---4---4-2-4----4-2---2--------------|
A|---------------------------------------------------------------|
E|---------------------------------------------------------------|

e|---------------------------------------------------------------|
B|---------------------------------------------------------------|
G|---------------------------------------------------------------|
D|-4---4---4-2-4---4---4-2-4---4---4-2-4-4-4/7-7-7-7-7-----------|
A|---------------------------------------------------------------|
E|---------------------------------------------------------------|

VERSE 1:

D                
  I won’t hold back
Bm                 
  and I won’t stop. 
G                        F#m                Em  
  Until I look back on a list all ticked in box.
D                                 Bm             
  Because all these things I do involve my voice.
G                                   E7
  And all these things achieved are down to you and me.

CHORUS:

D                          A
  And I will thank you for everything in good time
Em                         G
  With all this talk about souls under foreign skies.
D                          A
  And I will thank you for everything in good time
Em                         G
  With all this talk about souls.

VERSE 2:

D                Bm  
  I will thank you and I will sing
G                        F#m           Em
  Until you see the real side of how I feel.
D (let ring if you want)               Bm
  If this is what you hate then you’re lying through your teeth
G                                    F#m         Em
  Cause I’ve been searching high and low with my team.
D                    Bm 
  And I will thank you and I will sing.
G
  Until my lungs give out
    F#m          Em      
And I can barely breathe.
D                               Bm                   
  If this is what you want then I will start belief,
G                                 F#m          Em
  Like on the back of a map where you can only dream.


PRE-CHORUS (the oooh ooooh part)

Bm   F#   Bm   E


CHORUS: 

D                          A
  And I will thank you for everything in good time
Em                         G
  With all this talk about souls under foreign skies.
D                          A
  And I will thank you for everything in good time
Em                         G
  With all this talk about souls. X2


End on D and let it ring out.


BRIDGE:

(This is the bass notes transfered to guitar. It's played through the whole Bridge)

e|---------------------------------------------------------------|
B|---------------------------------------------------------------|
G|---------------------------------------------------------------|
D|---------------------------------------------------------------|
A|-5---5-5-------------------------------------------------------|
E|-----------2---2-2---7---7-5---5-3---3-3-----------------------|


The chords are: D, F#m, Bm, G   


I know I always sleep with the light on,

Just in case they, just in case they see.

That I only dare to dose at night,
     
Just in case they come flying through the front door.

With their arms stretched wide enough to fly,

Saying ‘I will take you there,

I will take you there.’

With their wings stretched opening my eyes,

Singing ‘I will take you there.

I will take you there.’


CHORUS

                             A
And I will thank you for everything in good time
Bm                         G           A
  With all this talk about souls under foreign skies.
D                          A
  And I will thank you for everything in good time
Em                         G
  With all this talk about souls.
D                          A
  And I will thank you for everything in good time
Em                         G
  With all this talk about souls under foreign skies.
D                          A
  And I will thank you for everything in good time
Em                         G                A            D
  With all this talk about... with all this talk about souls.
            

* All the chords provided on here are the property of the respective artist, authors and labels, they are intended strictly for educational purposes,read,view and private study. All the contents are extracted from the internet and we are not getting any responsibility for the content.