The Beginning Of The Twist


Transposer


             Chords used:

    G  C  F(1st) F(8th) A# D
e---3--3--1------8------6--5-------------------------|
B---3--5--1------10-----6--7-------------------------|
G---4--5--2------10-----7--7-------------------------|
D---5--5--3------10-----8--7-------------------------|
A---5--3--3------8------8--5-------------------------|
E---3-----1-------------6----------------------------|

Intro

G, C, F(1st) | G, C, F(8th) | 
C, F(1st) | G, D, F(1st) x2

Verse
e-----------------------------------------------------------------|
B-----------------------------------------------------------------|
G-----------------------------------------------------------------|
D-----------------------------------------------------------------|
A-----------------3-3-3-3-------------------------3-3-3-3-8-8-8-8-|
E-3-3-3-3-3-3-3-3---------1-1-1-1-3-3-3-3-3-3-3-3-----------------|
Pm. . . . . . . . . . . . . . . . . . . . . . . . . . . . . . . .

e--------------------------------------------------5-5-5--1-1-1--------|
B--------------------------------------------------7-7-7--1-1-1--------|
G--------------------------------------------------7-7-7--2-2-2--------| x2
D--------------------------------------------------7-7-7--3-3-3--------|
A--------------------------------------------------5-5-5--3-3-3--------|
E 6-6-6-6-6-6-6-6-8-8-8-8-1-1-1-1-3-3-3-3-3-3-3-3---------1-1-1--------|
Pm. . . . . . . . . . . . . . . . . . . . . . . .

Chorus

G | F | A# | C, F x4

Break

G | D, F

Order

Intro
Verse
Chorus
Break
Verse
chorus
Intro
Bridge (no guitar for the 1st half, then when the guitar does come in its the chorus 
minus the last F)
Chorus
Intro

Peace x
            

* All the chords provided on here are the property of the respective artist, authors and labels, they are intended strictly for educational purposes,read,view and private study. All the contents are extracted from the internet and we are not getting any responsibility for the content.