The Hardest Question


Transposer


             -------------------------------------------------------------------------------
                     The Hardest Question - Sharpless
-------------------------------------------------------------------------------

Tuning: Standard

Intro: F C Am Em E 6x


Main Riff:
e|--15-17-15-------------------15-17-15--------------------------------------|
B|-----------17-15-17-15----------------17-15-17----------15-17-15-----------|
G|-----------------------17-16-------------------14-16-17----------17--------|
D|---------------------------------------------------------------------------|
A|---------------------------------------------------------------------------|
E|---------------------------------------------------------------------------|

can also be played like this

e|---------------------------------------------------------------------------|
B|---------------------------------------------------------------------------|
G|---------------------------------------------------------------------------|
D|--5-7-5-------------5-7-5--------------------------------------------------|
A|--------7-5-7-5-----------7-5-7-------5-7-5--------------------------------|
E|----------------8-7-------------5-7-8-------8------------------------------|

Ahhh Riff:
e|--------------15-----------------------------------------------------------|
B|--17-17-15-17----17-15-17--------------------------------------------------|
G|---------------------------------------------------------------------------|
D|---------------------------------------------------------------------------|
A|---------------------------------------------------------------------------|
E|---------------------------------------------------------------------------|

or

e|---------------------------------------------------------------------------|
B|---------------------------------------------------------------------------|
G|----------5----------------------------------------------------------------|
D|--7-7-5-7---7-5-7----------------------------------------------------------|
A|---------------------------------------------------------------------------|
E|---------------------------------------------------------------------------|

Doesn't Really Matter Riff:
e|---------------------------------------------------------------------------|
B|---------------------------------------------------------------------------|
G|---------------------------------------------------------------------------|
D|--7-7-7-7-7-5-5------------------------------------------------------------|
A|----------------7-7-7-7-7-7-7-7-7-7-7-5-5-7-7-7-7-7-7-7-7-7----------------|
E|---------------------------------------------------------------------------|

F
i feel it in my head
C 
the letters in my bed 
Am          E
i'm not the person i wanted to be 
F
but every night's the same 
C
i'm easier to blame 
Am              E
as my sleepless nights still torture me

F       C
Ahhhhhhhh
Am                           E
the less i talk the more i'm able to get past the moment
F       C
Ahhhhhhhh
Am                         E
the less i talk the less i think about the past 
       F                        C
but it doesn't really matter at all 
       Am            E
is the answer to the hardest question 
F                        C
waiting for the apple to fall 
             Am               E
it's not why it falls but the fact that it falls at all

F C Am Em E  (Main Riff)
Ahhhhhhhhhh  2x

F
and now I see my face 
C
in everything before 
Am
in every cigarette 
E
in every liquor store 
F
and now i see my chest 
C
in every news report 
Am
about the kinda kids 
E
that always get bored

F       C
Ahhhhhhhh
Am                         E                 
i always thought that open doors would never close
F       C
Ahhhhhhhh 
Am                               E
i always thought that the adults would be the ones to know
F       C
Ahhhhhhhh
Am                            E
i always thought that i would figure out where to go 
F       C
Ahhhhhhhh
No chords
i always thought that i would figure it out 

       F                        C
but it doesn't really matter at all 
       Am            E
is the answer to the hardest question 
F                        C
waiting for the apple to fall 
             Am               E
it's not why it falls but the fact that it falls at all

F                      G
it's not why it falls
C
it's not why it falls
        Am
but the fact that it falls at all

F  G  C   Am
Ooohhhhhhhhh
            

* All the chords provided on here are the property of the respective artist, authors and labels, they are intended strictly for educational purposes,read,view and private study. All the contents are extracted from the internet and we are not getting any responsibility for the content.