Tiago


Transposer


             pour une edition en pdf sur 2 pages
mettre: "Font size -1"
et "2 column" dans les réglages


Capo en case 4
Pour l'accord B7/Gb jouez
le sans le doigt 4.


[Solo]

e|--2h333-2-0---------------------|
B|------------3-1-0------------3--|
G|-------------------2-0-2/4------|
D|--------------------------------|
A|--------------------------------|
E|--------------------------------|


e|-(2h3)33-2-0--------------------|
B|-------------3-1-0--------------|
G|-------------------2-0-2/4------|
D|--------------------------------|
A|--------------------------------|
E|--------------------------------|


e|--2h333-2-0---------------------|
B|------------3-1-0------------3--|
G|-------------------2-0-2/4------|
D|--------------------------------|
A|--------------------------------|
E|--------------------------------|

                            Emadd9
e|-(2h3)33-2-0----------------0----|
B|-------------3-1-0----------0----|
G|-------------------2v-------0----|
D|----------------------------3----|
A|----------------------------2----|
E|----------------------------0----|



[Intro]
C  Dadd4add9  Em  x2


[Verse 1]
Em                   C
Depuis qu'on est des mômes
Dadd4add9        Em
 Mon ami l'on a ramé
Em                      C
Mais tant qu'on est des hommes
Dadd4add9        Em
Les rames je veux ranger
Em                 C
Si te viennent des larmes
Dadd4add9        Em
Viens donc me le donner
Em                C
Les gitans, les gitanes
Dadd4add9            Emadd9
C'est pour ça qu'on est fait

[Chorus]
Em          C     Dadd4add9      Em
Tiago, j'ai pris, le temps de t'écrire
Em      C    Dadd4add9    G6
Une mélodie, en mille sourires
   Am7      Em  Dadd4add9        G6
Tiago, j'ai mis le temps pour le dire
     Am7 Em       B7/Gb          Em
Mais mon ami, je suis là pour le pire


[Instrumental]
C  Dadd4add9  Em  x2


[Verse 2]
Em              C
Qui se moque de toi
Dadd4add9         Em
Se moque aussi de moi
Em                C
Dans 20 ans tu verras
Dadd4add9   Em
On en rigolera
Em              C
Si ça part en bagarre
Dadd4add9   Em
On jouera 4 mains
Em                C
Les gitans, les gitanes,
Dadd4add9           Emadd9
Dieu nous donne des poings


[Chorus]
Em          C     Dadd4add9      Em
Tiago, j'ai pris, le temps de t'écrire
Em      C    Dadd4add9    G6
Une mélodie, en mille sourires
   Am7      Em  Dadd4add9        G6
Tiago, j'ai mis le temps pour le dire
     Am7 Em       B7/Gb          Em
Mais mon ami, je suis là pour le pire


[Bridge]
C  Dadd4add9                    Em
 Mon ami mon ami mon ami, Tiago
C  Dadd4add9                    Em
 Mon ami mon ami mon ami, Tiago
C  Dadd4add9                    Em
 Mon ami mon ami mon ami, Tiago
Em
Tiago


[Verse 3]
Em            C
La copine qui part
Dadd4add9         Em
Mais ne reviendra pas
Em                      C
C'est du temps pour se voir, oui
Dadd4add9           Em
Pour qu'on parle de toi
Em                  C
Si ton coeur est en panne
Dadd4add9         Em
Apporte-le dans l'heure
Em                C
Les gitans, les gitanes
Dadd4add9        Emadd9
On est bons bricoleurs


[Chorus]
Em          C     Dadd4add9      Em
Tiago, j'ai pris, le temps de t'écrire
Em     C     Dadd4add9   G6
Une mélodie, en mille sourires
   Am7      Em  Dadd4add9        G6
Tiago, j'ai mis le temps pour le dire
     Am7 Em    B7/Gb
Mais mon ami, Tiago


[Chorus]
Em          C     Dadd4add9       Em
Tiago, j'ai pris, le temps de t'écrire
Em      C     Dadd4add9   G6
Une mélodie, en mille sourires
   Am7       Em  Dadd4add9        G6
Tiago, j'ai mis le temps pour le dire
     Am7  Em     Emadd9           Em
Mais mon ami, je suis là pour le pire


[Outro]
   Em   C  Dadd4add9   Em
Tiago
   Em   C  Dadd4add9   G
Tiago
   Em   C  Dadd4add9   G
Tiago
   Em   C  Dadd4add9  Em
Tiago
            

* All the chords provided on here are the property of the respective artist, authors and labels, they are intended strictly for educational purposes,read,view and private study. All the contents are extracted from the internet and we are not getting any responsibility for the content.