Toda Nación


Transposer


             INTRO:
(Chorus Teclado, voces y platos de batería)
A     E  B  A     E  B      A     E  B    C#m A         B     E
Sa....anto  Sa....anto      Sa....anto uh oh  Santo es el Señor
A     E  B  A     E  B      A     E  B    C#m A         B     E
Sa....anto  Sa....anto      Sa....anto uh oh  Santo es el Señor

  E               A
E-12--12--12--12--12---12---12---12-----
B---9---9---9---9---10---10---10---10---

  E               A
E-12--12--12--12--12---12-----------
B---9---9---9---9---10---10---10---9---

(Guitarra bien notorio, Sintetizador String y Batería)
E        A            E    A        E      B    E
Toda nación se postrara al Dios del Universo
E          A           E      A  E        B
y con pasión le adorarán al Creador de la Vida

Cantando (Guitarra, Teclado y Batería)
A     E  B  A     E  B      A     E  B    C#m A         B     E
Sa....anto  Sa....anto      Sa....anto uh oh  Santo es el Señor

(Guitarra Eléctrica)
  E               A
E-12--12--12--12--12---12---12---12-----
B---9---9---9---9---10---10---10---10---

  E               A
E-12--12--12--12--12---12-----------
B---9---9---9---9---10---10---10---9---

(Teclado y Bateria)
E        A            E    A        E      B    E
Toda nación se postrara al Dios del Universo
E          A           E      A  E        B
y con pasión le adoraran al Creador de la Vida

(Guitarra Electroacústica, Eléctrica, Teclado String y Batería)
Cantando

A     E  B  A     E  B      A     E  B    C#m A         B     E
Sa....anto  Sa....anto      Sa....anto uh oh  Santo es el Señor
A     E  B  A     E  B      A     E  B    C#m A         B     E
Sa....anto  Sa....anto      Sa....anto uh oh  Santo es el Señor

  A            E          A
Uoor  tu eres Santo Oooh Señor y no hay nadie como Tú,

SOLO:
  A                         E
E---------------------------------------------------
B-10-10-10-10-10-10-10-10---9-9-9-9-9-9-9-9---------
G---------------------------------------------------
  A                         E                           B
E----------------------------------------------------
B-10-10-10-10-10-10-10-10---12-12-12-12-12-12-12-12--
G----------------------------------------------------

Cantamos (solo guitarra)
A     E  B  A     E  B      A     E  B    C#m A         B     E
Sa....anto  Sa....anto      Sa....anto uh oh  Santo es el Señor

  E               A
E-12--12--12--12--
B---9---9---9---9-
A              E  B  A     E  B      A     E  B    C#m A         B     E
Cantamos Sa....anto  Sa....anto      Sa....anto uh oh  Santo es el Señor

  E               A
E-12--12--12--12--
B---9---9---9---9-
A              E  B  A     E  B      A     E  B    C#m A         B     E
Cantamos Sa....anto  Sa....anto      Sa....anto uh oh  Santo es el Señor


(Guitarra eléctrica 2 veces al final)
  E               A
E-12--12--12--12--12---12---12---12-----
B---9---9---9---9---10---10---10---10---

  E               A
E-12--12--12--12--12---12-----------
B---9---9---9---9---10---10---10---9---

Cualquier consulta a mi mail:
[email protected]
Muchas bendiciones
            

* All the chords provided on here are the property of the respective artist, authors and labels, they are intended strictly for educational purposes,read,view and private study. All the contents are extracted from the internet and we are not getting any responsibility for the content.