Tornado


Transposer


             D   G   A   B   A   G   D
e---2---3---5---7---5---3---2---2--3--4--5--4--2--2--3--4--5--4--2-----------
B---3---3---5---7---5---3---3---3--4--5--6--5--3--3--4--5--6--5--3-----------
G---2---4---6---8---6---4---2---2--3--4--5--4--2--2--3--4--5--4--2-----------
D----------------------------------------------------------------------------
A------------------------------------------------------------------0--2--4---
E----------------------------------------------------------------------------

D
Hay purísima santita
D7
ya no seas tan burlona
 G
este amor que tu me has dado
                          D
se ha convertido en un tornado.
Hay doñita, hay doñita
no te lleves los vestidos
que son míos, que son míos
deje ahí ese colchón.
 A
Cuando ya me parecía
 G
que el dolor se desprendía
Bm
que la noche amanecía
 G                 D
que la lluvia pararía.


e---7---7--6---6--5---5---4-
B-7---7------7-----7--------

 Bm
Un tornado de dolor
 F# 7
el tornado del amor
 Bm
de la noche a la mañana
 G                 D
sobre ruinas me dejó.

Hay purísima santita...

Hay purísima santita
dónde guardo yo este amor
si el tornado me dejó
en patita y camisón.

Cuando ya me parecía...
 G
Temporal, temporal, temporal
      D
me dejó (x 2)
            

* All the chords provided on here are the property of the respective artist, authors and labels, they are intended strictly for educational purposes,read,view and private study. All the contents are extracted from the internet and we are not getting any responsibility for the content.